Song name
# A B C D E F G H I J K L M N O P Q R S T U V W X Y Z

Blackfield - This Killer tab

Tuning: Standard
2rt feet

Intro


|----X-------XX---X-----X---|---X-----XX-X-----X--|
|---------3-----------3-----|-------3--------3----|
|------4------------4-----4-|-----4--------4------|
|---------------------------|---------------------|
|3--------------------------|-3-------------------|
|---------------------------|---------------------|


|----X-------XX---X-----X---|---X-----XX-X-----X--|
|---------3-----------3-----|-------3--------3----|
|------4------------4-----4-|-----4--------4------|
|---------------------------|---------------------|
|X--------------------------|X--------------------|
|---------------------------|---------------------|

[IDEM INTRO]
Don't leave the door  
Don't walk away 
Don't leave me in the dark 

You think you know me well 
It makes me laugh 
Cause I don't know myself 


Em
This killer on the run 
Bm
He steals from me the soul 
D
He'll catch me off my guard 
A
He likes me when I'm down and when I'm sad 
Fmaj7   Gmaj7   Fmaj7   Gmaj7 
Falling man 
Fmaj7   Gmaj7   Fmaj7   Gmaj7 
Falling man 

Note: the rest of the song is the same estructure.
Comenents: freehand@ya.com
Tap to rate this tab
 
# A B C D E F G H I J K L M N O P Q R S T U V W X Y Z