Song name
# A B C D E F G H I J K L M N O P Q R S T U V W X Y Z

Blackfoot - Every Man Should Know Queenie tab

-------------------------------------------------------------------------------
1. 			     Every Man Should Know (Queenie)-Blackfoot
-------------------------------------------------------------------------------
Tabbed by: Duane Baldwin
Email: duane&julie@gmail.com
Tuning: EADGBE

Intro
Effects: Phase shifter slow sweep/moderate reverb
play freely
e|-------------|-----------------------------|--------------------|
B|-------3/5---|----------5\3--3---------3---|-------3/5---5-/10--|
G|-------2/4---|----------4\2--0-----0h2-----|-------2/4---4/9----|
D|-------------|-------------------0---------|--------------------|
A|-------------|-----------------------------|--------------------|
E|-12+ --------|--12+ -----------------------|-12+ ---------------|

e|-----------------------|----------------------|----------------------|
B|----5\3--3---------3---|--3p0-----------------|---------0---0--------|
G|----4\2--0-----0h2-----|--2p0-------------2---|---------0---0--------|
D|-------------0---------|---------------2------|---------0--------2---|
A|-----------------------|------------0---------|------------------2---|
E|-----------------------|---------3------------|--0--3------------0---|

Effects off played under first solo  *2nd guitar plays VII EM instead
e|---------------|--------------------|---------------|-------------------|
B|---------------|--------------------|---------------|-------------------|
G|--2------------|--0--2--------------|--2------------|--0--2-------------|
D|--2------2--2--|--0--2------2--2*---|--2------2--2--|--0--2------2--2---|
A|--0------2--2--|--0--0------2-------|--0------2--2--|--0--0------2------|
E|------3--0--0--|---------3--0-------|------3--0--0--|---------3--0------|

1st Verse
e|------------------------------------------|--------------|
B|------------------------------------------|--------------|
G|------------------------------------------|--4----3--3---|
D|------------------------------------------|--4----4--4---|
A|------2--2--2--2--2--2--2--2--2--2--2--2--|--2----4--4---|
E|-12\--0--0--0--0--0--0--0--0--0--0--0--0--|-------2--2---|

e|-------------------|-------------------|
B|-------------------|-------------------|
G|--0---2------------|--0--2-------------|
D|--0---2------2--2--|--0--2------2--2---|
A|--0---0------2--2--|--0--0------2------|
E|----------3--0--0--|---------3--0------|

e|------------------------------------------|--------------|
B|------------------------------------------|--------------|
G|------------------------------------------|--4----3--3---|
D|------------------------------------------|--4----4--4---|
A|------2--2--2--2--2--2--2--2--2--2--2--2--|--2----4--4---|
E|-12\--0--0--0--0--0--0--0--0--0--0--0--0--|-------2--2---|

e|-------------------|-------------------|
B|-------------------|-------------------|
G|--0---2------------|--0--2-------------|
D|--0---2------2--2--|--0--2------2--2---|
A|--0---0------2--2--|--0--0------2------|
E|----------3--0--0--|---------3--0------|

Chorus
e|------------------------------0---0--|-----------------------------|
B|-------------------8p7--------0---0--|-----------------------------|
G|--6--6--6---7---7-------7-----1---1--|--4---4---4---3---4---5---6--|
D|--6--6--6---7-------------7---2---2--|--4---4---4---3---4---5---6--|
A|--4--4--4---5-----------------2------|--2---2---2---1---2---3---4--|
E|------------------------------0------|-----------------------------|


e|---------------------------0---0--|
B|----------------8p7--------0---0--|
G|--6--6---7---7-------7-----1---1--|
D|--6--6---7-------------7---2---2--|
A|--4--4---5-----------------2------|
E|---------------------------0------|

Transition
e|--------------------------------------------|
B|--------------------------------------------|
G|--------4----------4-----------4---------4--|
D|------4---------4------------4---------4----|
A|-0--2------2--0--------0--------------------|
E|--------------------------4-------4--3------|


Played under Second solo
e|---------------|-------------------|---------------|-------------------|
B|---------------|-------------------|---------------|-------------------|
G|--2------------|--0--2-------------|--2------------|--0--2-------------|
D|--2------2--2--|--0--2------2--2---|--2------2--2--|--0--2------2--2---|
A|--0------2--2--|--0--0------2------|--0------2--2--|--0--0------2------|
E|------3--0--0--|---------3--0------|------3--0--0--|---------3--0------|

2nd Verse
e|------------------------------------------|--------------|
B|------------------------------------------|--------------|
G|------------------------------------------|--4----3--3---|
D|------------------------------------------|--4----4--4---|
A|------2--2--2--2--2--2--2--2--2--2--2--2--|--2----4--4---|
E|-12\--0--0--0--0--0--0--0--0--0--0--0--0--|-------2--2---|

e|-------------------|-------------------|
B|-------------------|-------------------|
G|--0---2------------|--0--2-------------|
D|--0---2------2--2--|--0--2------2--2---|
A|--0---0------2--2--|--0--0------2------|
E|----------3--0--0--|---------3--0------|

e|------------------------------------------|--------------|
B|------------------------------------------|--------------|
G|------------------------------------------|--4----3--3---|
D|------------------------------------------|--4----4--4---|
A|------2--2--2--2--2--2--2--2--2--2--2--2--|--2----4--4---|
E|-12\--0--0--0--0--0--0--0--0--0--0--0--0--|-------2--2---|

Chorus
e|------------------------------0---0--|-----------------------------|
B|-------------------8p7--------0---0--|-----------------------------|
G|--6--6--6---7---7-------7-----1---1--|--4---4---4---3---4---5---6--|
D|--6--6--6---7-------------7---2---2--|--4---4---4---3---4---5---6--|
A|--4--4--4---5-----------------2------|--2---2---2---1---2---3---4--|
E|------------------------------0------|-----------------------------|

e|---------------------------0---0--|
B|----------------8p7--------0---0--|
G|--6--6---7---7-------7-----1---1--|
D|--6--6---7-------------7---2---2--|
A|--4--4---5-----------------2------|
E|---------------------------0------|


Transition played under main solo
e|--------------------------------------------|
B|--------------------------------------------|
G|--------4----------4-----------4---------4--|
D|------4---------4------------4---------4----|
A|-0--2------2--0--------0--------------------|
E|--------------------------4-------4--3------|

e|--------------------------------------------|
B|--------------------------------------8--7--|
G|--0--2----------------------2---------7--7--|
D|--0--2------2--x--x--x--x---2-----2---7--7--|
A|--0--0------2--x--x--x--x---0-----2---5--5--|
E|---------3--0--x--x--x--x------3--0---------|

e|--------------------------------------------|
B|--------------------------------------8--7--|
G|--0--2----------------------2---------7--7--|
D|--0--2------2--2--2--2--2---2-----2---7--7--|
A|--0--0------2--2--2--2--2---0-----2---5--5--|
E|---------3--0--0--0--0--0------3--0---------|

e|-------------------|-----------------------|
B|-------------------|----------------8---9--|  
G|--0---2------------|--0--2----------8---9--|
D|--0---2------2--2--|--0--2------2---6---7--|
A|--0---0------2--2--|--0--0------2----------|
E|----------3--0--0--|---------3--0----------|  

e|-------------------|-----------------------|
B|-------------------|----------------8---9--|  
G|--0---2------------|--0--2----------8---9--|
D|--0---2------2--2--|--0--2------2---6---7--|
A|--0---0------2--2--|--0--0------2----------|
E|----------3--0--0--|---------3--0----------|  


Third Verse
e|------------------------------------------|--------------|
B|------------------------------------------|--------------|
G|------------------------------------------|--4----3--3---|
D|------------------------------------------|--4----4--4---|
A|------2--2--2--2--2--2--2--2--2--2--2--2--|--2----4--4---|
E|-12\--0--0--0--0--0--0--0--0--0--0--0--0--|-------2--2---|

e|---------------------|---------------------|
B|--9------10----9--9--|--9------10----9--9--|
G|--9----9-------9--9--|--9----9-------9--9--|
D|--9h11---------9--9--|--9h11---------9--9--|
A|---------------------|---------------------|
E|---------------------|---------------------|

e|------------------------------------------|--------------|
B|------------------------------------------|--------------|
G|------------------------------------------|--4----3--3---|
D|------------------------------------------|--4----4--4---|
A|------2--2--2--2--2--2--2--2--2--2--2--2--|--2----4--4---|
E|-12\--0--0--0--0--0--0--0--0--0--0--0--0--|-------2--2---|

e|---------------------|---------------------|
B|--9------10----9--9--|--9------10----9--9--|
G|--9----9-------9--9--|--9----9-------9--9--|
D|--9h11---------9--9--|--9h11---------9--9--|
A|---------------------|---------------------|
E|---------------------|---------------------|

Chorus
e|------------------------------0---0--|-----------------------------|
B|-------------------8p7--------0---0--|-----------------------------|
G|--6--6--6---7---7-------7-----1---1--|--4---4---4---3---4---5---6--|
D|--6--6--6---7-------------7---2---2--|--4---4---4---3---4---5---6--|
A|--4--4--4---5-----------------2------|--2---2---2---1---2---3---4--|
E|------------------------------0------|-----------------------------|

e|---------------------------0---0--|
B|----------------8p7--------0---0--|
G|--6--6---7---7-------7-----1---1--|
D|--6--6---7-------------7---2---2--|
A|--4--4---5-----------------2------|
E|---------------------------0------|

Transition play till fade out
e|--------------------------------------------|
B|--------------------------------------------|
G|--------4----------4-----------4---------4--|
D|------4---------4------------4---------4----|
A|-0--2------2--0--------0--------------------|
E|--------------------------4-------4--3------|


First solo
e|--------------------------------------------------------------|
B|--------------------------------------------------------------|
G|-2bh--2ph+--2ph+--2ph+--2ph+--2ph+--2br--0--2p0---------------|
D|--------------------------------------------\/\/\/\/\/\/------|
A|--------------------------------------------------------------|
E|--------------------------------------------------------------|

e|---------------------------------------------------------------------------|
B|-15p12--15br15--15--12--15p12-----12--------------------15-----------------|
G|-------------------------------14----14p12-----12--14bh----14rb-14p12------|
D|--------------------------------------------14-------------------------14--|
A|---------------------------------------------------------------------------|
E|---------------------------------------------------------------------------|


Second solo
e|------------------------------|------------------------------------------|
B|-------------------7----7--9b-|-5--3---3--5--3---------------------------|
G|--8--6--8/9--8--9-----9-------|------4----------4\2-0--2p0----0----------|
D|------------------------------|----------------------------2--\/\/\//\/--|
A|------------------------------|------------------------------------------|
E|------------------------------|------------------------------------------|

e|---------------------------------------------------------------------------|
B|--(0)--15--12--15b--15--12--15b--15--15p12---------------------------------|
G|-------------------------------------------14--14--14--12-----12-----------|
D|----------------------------------------------------------14--\/\/\/\/\/---|
A|---------------------------------------------------------------------------|
E|---------------------------------------------------------------------------|


Main Solo
e|-------------------------------------------------------------|
B|--------------------------------------------------------7br--|
G|--6p4--6bh--6ph+--6ph+--6ph+--6ph+--6br--4h6p4-------4-------|
D|------------------------------------------------4h6----------|
A|-------------------------------------------------------------|
E|-------------------------------------------------------------|

e|-------7-------------------------------14--14-------17b--|
B|--7bh----7br-------------------12-14bh-----14br--12------|
G|-------------6pbr--4h6p4--9/13---------------------------|
D|---------------------------------------------------------|
A|---------------------------------------------------------|
E|---------------------------------------------------------|


End solo play till fade out
e|------------------------------------|-------------------------------|
B|-------------------7----7--9b--7----|-------------------7----7--9b--|
G|--8--6--8/9--8--9-----9----------9--|--8--6--8/9--8--9-----9--------|
D|------------------------------------|-------------------------------|
A|------------------------------------|-------------------------------|
E|------------------------------------|-------------------------------|


| /  slide up
| \  slide down
| h  hammer-on
| p  pull-off
| ~  vibrato
| +  harmonic
| x  Mute note
|() Ghost note
|b   bend
|bh hold bend
|br release bend
|ph+ pinch harmonic
|\/ dive bar
|\/\/\/ rapid repeated vibrato w/ bar
==============================================================================
A G E G A G E

First Verse

      E                             B    F#    G    A   G   E  G A G E
Well don't mess with my queenie or I'll mess with your nose

    E                           B               F#        G A  G  E  G A G E
Yes you can stand there dreamin' but don't cha dare step on my toes

Chorus

Db                     D
Cause every man should know

E                            B  Bb B C Db
You cant take what you dont own

Db                 D
To own a body you got to own a soul

E                    B   A/B Ab/B G/B
so every man should know

A G E G A G E

2nd Verse

    E                     B    F#      G    A     G E  G A G E
Yes you can take my money but I won't take second place

    E                     B    F#            G    A G E  G A G E
Oh you mess with my honey and I'll mess with your face

Chorus

Db                     D
Cause every man should know

E                            B  Bb B C Db
You cant take what you dont own

Db                 D
To own a body you got to own a soul

E                    B   A/B Ab/B G/B
so every man should know

Solo
 B A/B Ab/B G/B

G A G E

G A G Eb E

Third Verse

     E                             B    F#    G    A   G   E  G A G E
Well don't mess with my queenie or I'll mess with your nose

    E                           B               F#        G A  G  E  G A G E
Yes you can stand there dreamin' but don't cha dare step on my toes

Chorus

Db                     D
Cause every man should know

E                            B  Bb B C Db
You cant take what you dont own

Db                 D
To own a body you got to own a soul

E                    B   A/B Ab/B G/B
so every man should know

B  A/B Ab/B G/B
Tap to rate this tab
 
# A B C D E F G H I J K L M N O P Q R S T U V W X Y Z