Song name
# A B C D E F G H I J K L M N O P Q R S T U V W X Y Z

Blackfoot - Wishing Well tab

-------------------------------------------------------------------------------
1. 			                         Wishing Well- Blackfoot
2.                                Strikes-1979
3.          Words and Music by Yamauchi,Rodgers,Kirke,Kossoff &Bundrick
-------------------------------------------------------------------------------
Tabbed by:Duane Baldwin
Email:duane&julie@gmail.net

Tuning: EADGBE

Intro                                               1st Fill
e|----------------|----------------|----------------|---3---|-------|
B|----------------|----------------|----------------|---3---|-------|
G|-------------2--|----------------|-------------2--|---0---|---9---|
D|--2--0-------2--|-------------2--|--2--0-------2--|---0---|---9---|
A|---------2---0--|--2--0-------2--|---------2---0--|---2---|---7---|
E|----------------|---------3---0--|----------------|---3---|-------|

e|------------------|
B|------------------|
G|--12--14--12--12--|
D|--12--14--12--12--|
A|------------------|
E|------------------|

1st Verse
e|-----------------|-----------------|------------|-------------|
B|-----------------|-----------------|------------|-------------|
G|-----------------|-----------------|---5----7---|---9---------|
D|--2---2---2---2--|--2---2---2---2--|---5----7---|---9---------|
A|--2---2---2---2--|--2---2---2---2--|---3----5---|---7---------|
E|--0---0---0---0--|--0---0---0---0--|------------|---0---12\5--|

e|-----------------|-----------------|------------|-------|
B|-----------------|-----------------|------------|-------|
G|-----------------|-----------------|---5----7---|-------|
D|--2---2---2---2--|--2---2---2---2--|---5----7---|---2---|
A|--2---2---2---2--|--2---2---2---2--|---3----5---|---2---|
E|--0---0---0---0--|--0---0---0---0--|------------|---0---|

1st Chorus
e|------------|-----------------|------------|-------|
B|------------|-----------------|------------|-------|
G|---5----7---|--9---9---9---9--|---5----7---|---9---|
D|---5----7---|--9---9---9---9--|---5----7---|---9---|
A|---3----5---|--7---7---7---7--|---3----5---|---7---|
E|------------|--0---0---0---0--|------------|---0---|

e|------------|-----------------|------------|
B|------------|-----------------|------------|
G|---5----7---|-----------------|---5----7---|
D|---5----7---|--2---2---2---2--|---5----7---|
A|---3----5---|--2---2---2---2--|---3----5---|
E|------------|--0---0---0---0--|------------|
				                                        2nd Fill  *pick scrape
e|----------------|----------------|----------------|---3---|-------|-*---|
B|----------------|----------------|----------------|---3---|-------|-----|
G|-------------2--|----------------|-------------2--|---0---|---9---|-----|
D|--2--0-------2--|-------------2--|--2--0-------2--|---0---|---9---|-----|
A|---------2---0--|--2--0-------2--|---------2---0--|---2---|---7---|-----|
E|----------------|---------3---0--|----------------|---3---|-------|-----|

2nd Verse
e|-----------------|-----------------|------------|-------------|
B|-----------------|-----------------|------------|-------------|
G|-----------------|-----------------|---5----7---|---9---------|
D|--2---2---2---2--|--2---2---2---2--|---5----7---|---9---------|
A|--2---2---2---2--|--2---2---2---2--|---3----5---|---7---------|
E|--0---0---0---0--|--0---0---0---0--|------------|---0---12\5--|

e|-----------------|-----------------|------------|-------|
B|-----------------|-----------------|------------|-------|
G|-----------------|-----------------|---5----7---|-------|
D|--2---2---2---2--|--2---2---2---2--|---5----7---|---2---|
A|--2---2---2---2--|--2---2---2---2--|---3----5---|---2---|
E|--0---0---0---0--|--0---0---0---0--|------------|---0---|

2nd Chorus
e|------------|-----------------|------------|-------|
B|------------|-----------------|------------|-------|
G|---5----7---|--9---9---9---9--|---5----7---|---9---|
D|---5----7---|--9---9---9---9--|---5----7---|---9---|
A|---3----5---|--7---7---7---7--|---3----5---|---7---|
E|------------|--0---0---0---0--|------------|---0---|

e|------------|-----------------|------------|
B|------------|-----------------|------------|
G|---5----7---|-----------------|---5----7---|
D|---5----7---|--2---2---2---2--|---5----7---|
A|---3----5---|--2---2---2---2--|---3----5---|
E|------------|--0---0---0---0--|------------|

e|----------------|----------------|----------------|
B|----------------|----------------|----------------|
G|-------------2--|----------------|-------------2--|
D|--2--0-------2--|-------------2--|--2--0-------2--|
A|---------2---0--|--2--0-------2--|---------2---0--|
E|----------------|---------3---0--|----------------|

Bridge
e|--0---0---0--|----------------------|--1--1-------3--3-----|
B|--1---1---3--|--1--0h1--------------|--1-----1----3-----3--|
G|--2---2---2--|----------2-----------|--2----------4--------|
D|--2---2---2--|-------------2-----2--|--3----------5--------|
A|--0---0---0--|----------------0-----|--3----------5--------|
E|-------------|----------------------|----------------------|


e|--0-----------------|--1--1-------3--3-----|--0-----------------|
B|--1-----1--3--1--0--|--1-----1----3-----3--|--1-----1--3--1--0--|
G|--2--2--------------|--2----------4--------|--2--2--------------|
D|--2-----------------|--3----------5--------|--2-----------------|
A|--0-----------------|--3----------5--------|--0-----------------|
E|--------------------|----------------------|--------------------|

e|--1--1-------3--3-----|--0-----------------|--1--1-------3--3-----|
B|--1-----1----3-----3--|--1-----1--3--1--0--|--1-----1----3-----3--|
G|--2----------4--------|--2--2--------------|--2----------4--------|
D|--3----------5--------|--2-----------------|--3----------5--------|
A|--3----------5--------|--0-----------------|--3----------5--------|
E|----------------------|--------------------|----------------------|

                    Main Solo 1
e|--0---0---0---0--|--1---3--|-----------------|--1---3--|-----------------|
B|--1---1---1---1--|--1---3--|-----------------|--1---3--|-----------------|
G|--2---2---2---2--|--2---4--|--2---2---2---2--|--2---4--|--2---2---2---2--|
D|--2---2---2---2--|--3---5--|--2---2---2---2--|--3---5--|--2---2---2---2--|
A|--0---0---0---0--|--3---5--|--0---0---0---0--|--3---5--|--0---0---0---0--|
E|-----------------|--1---3--|-----------------|--1---3--|-----------------|

e|--1---3--|-----------------|--1---3--|-------|
B|--1---3--|-----------------|--1---3--|-------|
G|--2---4--|--2---2---2---2--|--2---4--|---2---|
D|--3---5--|--2---2---2---2--|--2---4--|---2---|
A|--2---4--|--0---0---0---0--|--2---4--|---0---|
E|--1---3--|-----------------|--1---3--|-------|

Main Solo 2
e|-------|-------|-------|-------|-------------|-------------|
B|---5---|---5---|---7---|---7---|-------------|-------------|
G|---5---|---5---|---7---|---7---|--2---2---2--|--4---4---4--|
D|---5---|---5---|---7---|---7---|--3---3---3--|--5---5---5--|
A|---3---|---3---|---5---|---5---|--3---3---3--|--5---5---5--|
E|-------|-------|-------|-------|--1---1---1--|--3---3---3--|

Build up guitar 1
e|--------------------------|--------------------------|
B|--------------------------|--------------------------|
G|--2--2--2--2--2--2--2--2--|--2--2--2--2--2--2--2--2--|
D|--2--2--2--2--2--2--2--2--|--2--2--2--2--2--2--2--2--|
A|--0--0--0--0--0--0--0--0--|--0--0--0--0--0--0--0--0--|
E|--------------------------|--------------------------|

Build up guitar 2
e|---------------------------------|----------------------------------|
B|-----10--10--10--10--10--10--10--|--10--10--10--10--10--10--10--10--|
G|--9--9---9---9---9---9---9---9---|--9---9---9---9---9---9---9---9---|
D|--7--7---7---7---7---7---7---7---|--7---7---7---7---7---7---7---7---|
A|---------------------------------|----------------------------------|
E|---------------------------------|----------------------------------|

3rd Chorus
e|--1---3--|-----------------|--1---3--|-------|--1---3--|-----------------|
B|--1---3--|-----------------|--1---3--|-------|--1---3--|-----------------|
G|--2---4--|--2---2---2---2--|--2---4--|---2---|--2---4--|--2---2---2---2--|
D|--3---5--|--2---2---2---2--|--3---5--|---2---|--3---5--|--2---2---2---2--|
A|--3---5--|--0---0---0---0--|--3---5--|---0---|--3---5--|--0---0---0---0--|
E|--1---3--|-----------------|--1---3--|-------|--1---3--|-----------------|

e|--1---3--|
B|--1---3--|
G|--2---4--|
D|--3---5--|
A|--3---5--|
E|--1---3--|

Outro: play till fade out
e|---------------|--------------|---------------|--------------|
B|---------------|--------------|---------------|--------------|
G|--2--0------2--|-----------2--|--2--0------2--|-----------2--|
D|---------2--0--|--2--0-----2--|---------2--0--|--2--0-----2--|
A|---------------|--------3--0--|---------------|--------3--0--|
E|---------------|--------------|---------------|--------------|

1st Fill
e|----------------------------|
B|--18brb---18brb---15---18b--|
G|----------------------------|
D|----------------------------|
A|----------------------------|
E|----------------------------|

2nd Fill
e|---------------18-----------|
B|--18brb---18b------18--18b--|
G|----------------------------|
D|----------------------------|
A|----------------------------|
E|----------------------------|

Main Solo: guitar 1
e|--------------------------|--------------------------------|
B|--------------------------|--------------------------------|
G|--------------------------|-----------------------------5--|
D|--------------------------|-----------5-----5-----5--7-----|
A|---------------3--5br--3--|------5/7-----7-----7-----------|
E|--2/12\2--1/3-------------|--5-----------------------------|

e|-----------------------------|-------------------------------------|
B|-------------t---------------|--------13------15--13------13--15b--|
G|--7brb--7b--12--7pbr--5------|--7/14------14----------14-----------|
D|--------------------------7--|-------------------------------------|
A|-----------------------------|-------------------------------------|
E|-----------------------------|-------------------------------------|

e|--15-------------------------15br--|--12----------------------|
B|------15pbr--15--13------13--------|------15--13--15--13------|
G|---------------------14------------|----------------------14--|
D|-----------------------------------|--------------------------|
A|-----------------------------------|--------------------------|
E|-----------------------------------|--------------------------|

e|-----------------20br--20--20p17------17--20p17------20p17------17--------|
B|--14/17--20--17-------------------20-------------20---------20------20b---|
G|--------------------------------------------------------------------------|
D|--------------------------------------------------------------------------|
A|--------------------------------------------------------------------------|
E|--------------------------------------------------------------------------|

Main Solo: guitar 2					      X  x  x  x
e|---------------------------------------|---------------------------|
B|---------------------------------------|---------------------------|
G|--5-------5--7--7b--7b--7b--7pbr--5h7--|--5h7--7--7--7--7h5-----5--|
D|-----5h7-------------------------------|---------------------7-----|
A|---------------------------------------|---------------------------|
E|---------------------------------------|---------------------------|

                                                    Go to build up 2
e|----------------------------------|---------------|
B|-------8--10--8-------------------|--------8--10--|
G|--7/9------------7--5--7br--5--7--|--7/9----------|
D|----------------------------------|---------------|
A|----------------------------------|---------------|
E|----------------------------------|---------------|

Outro Solo
e|----------------------|----------------------|----------------------|
B|--20b--20b--20b--20b--|--20b--20b--20b--20b--|--20b--20b--20b--20b--|
G|----------------------|----------------------|----------------------|
D|----------------------|----------------------|----------------------|
A|----------------------|----------------------|----------------------|
E|----------------------|----------------------|----------------------|

e|----------------------|--------------------|-------20-------------------|
B|--20b--20b--20b--20b--|--20b--20--20b--20--|--20b------20--20b--20--17--|
G|----------------------|--------------------|----------------------------|
D|----------------------|--------------------|----------------------------|
A|----------------------|--------------------|----------------------------|
E|----------------------|--------------------|----------------------------|

e|--20b--20b--20b--20b--|--17--17--20--17--|
B|----------------------|------------------|
G|----------------------|------------------|
D|----------------------|------------------|
A|----------------------|------------------|
E|----------------------|------------------|


************************************

| /   slide up
| \   slide down
| h   hammer-on
| p   pull-off
| ~   vibrato
| +   harmonic
| x   Mute note
| b   Bend
| pb  Pre-bend
| br  Bend release
| pbr Pre-bend release
| brb Bend release bend

************************************

Intro

N.C.  A   N.C.  E   N.C.  A  G  E

1st Verse

E
Take off your hat and kick off your shoes

C               D        E
I know you aint going anywhere


run around the town singing your blues

C               D        E
I know you aint going anywhere

1st Chorus

       C     D      E
Youve always been a good friend of mine

          C      D              E
but your always saying farewell

        C    D         E
and the only time that your satisfied

              C           D     N.C.  A   N.C.  E   N.C.  A  G  E
is with your feet in the wishing well

2nd Verse

E
Throw down your gun you might shoot yourself

      C              D         E
or is that what your trying to do

E
put up a fight you believe to be right

    C            D               E
and someday the sun will shine through

       C       D  E
you've always got something to hide

C             D          E
something you just can't tell

         C    D         E
and the only time that your satisfied

              C           D     N.C.  A   N.C.  E   N.C.  A Am
is with your feet in the wishing well

Bridge

      F              G       Am
But I know what your wishing for

Play four times
F              G         Am
(happiness and peace for all)

Solo

F  G  A

F  G  A

F  G  A

F  G  A

C  D  F  G A

3rd Chorus

      F      G      A
Youve always been a good friend of mine

          F      G              A
but your always saying farewell

        F    G         A
and the only time that your satisfied

              F           G     N.C.  D   N.C.  A
is with your feet in the wishing well
Tap to rate this tab
 
# A B C D E F G H I J K L M N O P Q R S T U V W X Y Z