Song name
# A B C D E F G H I J K L M N O P Q R S T U V W X Y Z

Blackfoot - Junkies Dream tab

-----------------------------------------------------------------------------
                             Junkie's Dream- Blackfoot
                                Flyin' High - 1976
                 Words and Music by Rick Medlocke and Jakson Spiers
-----------------------------------------------------------------------------
Tabbed by: Duane Baldwin
E-mail:duaneandjulie@gmail.com

Tuning: Half Step Down

Solos and fills are at the end of the tab

Guitar I (overdriven tone)

Intro

e|----------------------|-----------------|-----------------------|
B|----------8-----------|-----------------|-----------------------|
G|--7---9---7---9~~~~~--|----------5---7--|--------0-----------5--|
D|--7---9-------9~~~~~--|--5---7---5---7--|--0h2---0---5---7---5--|
A|----------------------|--5---7----------|--0h2-------5---7------|
E|----------------------|-----------------|-----------------------|

e|-------------------|----------------------|-----------------------|
B|--------8----------|----------8-----------|-----------------------|
G|--7/9---7---9---7--|--7---9---7---9~~~~~--|----------5---7~~~~~~--|
D|--7/9-------9---7--|--7---9-------9~~~~~--|--5---7---5---7~~~~~~--|
A|-------------------|----------------------|--5---7----------------|
E|-------------------|----------------------|-----------------------|

e|-------------------|------------3------|--3---2----|
B|--------8----------|------------3------|--3---3----|
G|--7/9---7---9---7--|--2---0-----0------|--0---2----|
D|--7/9-------9---7--|--2---0-----0------|--0--------|
A|-------------------|------------2------|-----------|
E|-------------------|------------3------|-----------|

1st Verse (Clean tone) Let all notes ring where possible

e|--------------0-----------|--------------0-----------|
B|-----------0-----0--------|-----------3-----3--------|
G|--------0-----------0-----|--------2-----------2-----|
D|-----2--------------------|-----0-----------------0--|
A|--------------------------|--------------------------|
E|--0--------------------0--|--2-----------------------|

                             Don't let notes ring in this measure only
e|--------------0-----------|--------------3------|
B|-----------0-----0--------|-----------2-----2---|
G|--------0-----------0-----|--------2------------|
D|-----2-----------------2--|-----2---------------|
A|--------------------------|--0------------------|
E|--0-----------------------|---------------------|

e|--------------0-----------|--------------0-----------|--------2---|
B|-----------0-----0--------|-----------3-----3--------|--3-----3---|
G|--------0-----------0-----|--------2-----------2-----|--0-----2---|
D|-----2--------------------|-----0-----------------0--|--2-----0---|
A|--------------------------|--------------------------|--3---------|
E|--0--------------------0--|--2-----------------------|------------|

Intro reprise (Over Driven tone)

e|----------------------|-----------------------|-----------------------|
B|----------8-----------|-----------------------|-----------------------|
G|--7---9---7---9~~~~~--|----------5---7~~~~~~--|--------0-----------5--|
D|--7---9-------9~~~~~--|--5---7---5---7~~~~~~--|--0h2---0---5---7---5--|
A|----------------------|--5---7----------------|--0h2-------5---7------|
E|----------------------|-----------------------|-----------------------|

e|--------------------------|-----------------------|-----------------|
B|----------8---------------|----------8------------|-----------------|
G|--7---9---7---9---7~~~~~--|----------7---9~~~~~~--|----------5---7--|
D|--7---9-------9---7~~~~~--|--7---9-------9~~~~~~--|--5---7---5---7--|
A|--------------------------|--7---9----------------|--5---7----------|
E|--------------------------|-----------------------|-----------------|

e|----------------------|------------3------|--3---2----|
B|-----------8----------|------------3------|--3---3----|
G|--7---9----7---9---7--|--2---0-----0------|--0---2----|
D|--7---9--------9---7--|--2---0-----0------|--0--------|
A|----------------------|------------2------|-----------|
E|----------------------|------------3------|-----------|

2nd Verse (Clean tone) Let all notes ring where possible

e|--------------0-----------|--------------0-----------|
B|-----------0-----0--------|-----------3-----3--------|
G|--------0-----------0-----|--------2-----------2-----|
D|-----2--------------------|-----0-----------------0--|
A|--------------------------|--------------------------|
E|--0--------------------0--|--2-----------------------|

                             Don't let notes ring in this measure only
e|--------------0-----------|--------------3------|
B|-----------0-----0--------|-----------2-----2---|
G|--------0-----------0-----|--------2------------|
D|-----2-----------------2--|-----2---------------|
A|--------------------------|--0------------------|
E|--0-----------------------|---------------------|

e|--------------0-----------|--------------0-----------|
B|-----------0-----0--------|-----------3-----3--------|
G|--------0-----------0-----|--------2-----------2-----|
D|-----2--------------------|-----0-----------------0--|
A|--------------------------|--------------------------|
E|--0--------------------0--|--2-----------------------|

e|--------------0-----------|-----------------|--------------0-------------|
B|-----------0-----0--------|-----------------|-----------0-----0----------|
G|--------0-----------0-----|----2----0----2--|--------0-----------0-------|
D|-----2-----------------2--|----2----0----2--|-----2----------------------|
A|--------------------------|----0------------|----------------------------|
E|--0-----------------------|-----------------|--0--------------------0----|

e|--------------0-----------|--------------0-----------|--------------3------|
B|-----------3-----3--------|-----------0-----0--------|-----------2-----2---|
G|--------2-----------2-----|--------0-----------0-----|--------2------------|
D|-----0-----------------0--|-----2-----------------2--|-----2---------------|
A|--------------------------|--------------------------|--0------------------|
E|--2-----------------------|--0-----------------------|---------------------|

                                                        (Over driven tone)
e|--------------0-----------|--------------0-----------|--------2----------|
B|-----------0-----0--------|-----------3-----3--------|--3-----3----------|
G|--------0-----------0-----|--------2-----------2-----|--0-----2----------|
D|-----2--------------------|-----0-----------------0--|--2-----0----------|
A|--------------------------|--------------------------|--3----------------|
E|--0--------------------0--|--2-----------------------|-------------3--2--|

e|-------------------|--------2------|
B|-------------------|--3-----3------|
G|-------------------|--0-----2------|
D|--2---2p0----------|--2-----0------|
A|--2--------2-------|--3------------|
E|--0-----------0----|---------------|

Intro Reprise

e|----------------------|-----------------------|-----------------------|
B|----------8-----------|-----------------------|-----------------------|
G|--7---9---7---9~~~~~--|----------5---7~~~~~~--|--------0-----------5--|
D|--7---9-------9~~~~~--|--5---7---5---7~~~~~~--|--0h2---0---5---7---5--|
A|----------------------|--5---7----------------|--0h2-------5---7------|
E|----------------------|-----------------------|-----------------------|

e|--------------------------|-----------------------|---------------------|
B|----------8---------------|----------8------------|---------------------|
G|--7---9---7---9---7~~~~~--|----------7---9~~~~~~--|----------5---7~~~~--|
D|--7---9-------9---7~~~~~--|--7---9-------9~~~~~~--|--5---7---5---7~~~~--|
A|--------------------------|--7---9----------------|--5---7--------------|
E|--------------------------|-----------------------|---------------------|

e|----------------------|------------3------|
B|-----------8----------|------------3------|
G|--7---9----7---9---7--|--2---0-----0------|
D|--7---9--------9---7--|--2---0-----0------|
A|----------------------|------------2------|
E|----------------------|------------3------|

1st Chorus

e|--------------|--------------------|---------------------|----3-----|
B|--------------|--------------------|------------------8--|----3-----|
G|--2---2-------|--2-------------9---|--7---9---7---9---7--|----0-----|
D|--2---2-------|--2--------2----9---|--7---9---7---9------|----0-----|
A|--0---0-------|--0--------2--------|---------------------|----2-----|
E|----------3b--|------3b---0--------|---------------------|----3-----|

e|------------2----|
B|------------3----|
G|------------2----|
D|------------0----|
A|--2--3--4--------|
E|-----------------|

Bridge (Clean tone)

  Let notes ring where possible
e|--------------|-----------------------|-----------------------|
B|--------------|-----------------------|-----------------------|
G|------2-------|--2--------------2-----|--2--------------2-----|
D|---------2----|--------------------2--|--------------------2--|
A|--0-----------|------0--0--3b---------|------0--0--3b---------|
E|--------------|-----------------------|-----------------------|

e|-----------------------|-----------------------|-----------------------|
B|-----------------------|-----------------------|-----------------------|
G|--2--------------2-----|--2--------------2-----|--2--------------2-----|
D|--------------------2--|--------------------2--|--------------------2--|
A|------0--0--3b---------|------0--0--3b---------|------0--0--3b---------|
E|-----------------------|-----------------------|-----------------------|


                                                  (Overdriven tone)
e|-----------------------|-----------------------|-----------|
B|-----------------------|-----------------------|-----------|
G|--2--------------2-----|--2--------------2-----|-----------|
D|--------------------2--|--------------------2--|--7----5---|
A|------0--0--3b---------|------0--0--3b---------|--7----5---|
E|-----------------------|-----------------------|--5----3---|

Main Solo

e|----------------------|-----------------------|----------------------|
B|----------------------|-----------------------|----------------------|
G|----------7---9~~~~~--|----------5---7~~~~~~--|----------7---9---7---|
D|--7---9---7---9~~~~~--|--5---7---5---7~~~~~~--|--7---9---7---9---7---|
A|--7---9---------------|--5---7----------------|--7---9---------------|
E|----------------------|-----------------------|----------------------|

e|----------------------|----------------------|-----------------------|
B|----------------------|----------------------|-----------------------|
G|----------------------|----------7---9~~~~~--|----------5---7~~~~~~--|
D|--5---7---5-------5---|--7---9---7---9~~~~~--|--5---7---5---7~~~~~~--|
A|--5---7---5---7---5---|--7---9---------------|--5---7----------------|
E|--------------7---3---|----------------------|-----------------------|

e|----------------------|----------------------|-----------------|
B|----------------------|----------------------|-----------------|
G|----------7---9---7---|----------------------|-----------7/9---|
D|--7---9---7---9---7---|--5---7---5-------5---|--7/9------7/9---|
A|--7---9---------------|--5---7---5---7---5---|--7/9------5/7---|
E|----------------------|--------------7---3---|--5/7------------|

e|----------------|-----------------|-------------------------------|
B|----------------|-----------------|-------------------------------|
G|----------5/7---|-----------7/9---|-------------------------------|
D|--5/7-----5/7---|--7/9------7/9---|--5---7---5--------------------|
A|--5/7-----3/5---|--7/9------5/7---|--5---7---5---7---------5---7--|
E|--3/5-----------|--5/7------------|--------------7---5/7----------|


e|----------------|----------------|-----------------|------------------3--3-|
B|----------------|----------------|-----------------|------------------3--3-|
G|----------7/9---|----------5/7---|-----------7/9---|------------------0--0-|
D|--7/9-----7/9---|--5/7-----5/7---|--7/9------7/9---|--5---7---5---2---0--0-|
A|--7/9-----5/7---|--5/7-----3/5---|--7/9------5/7---|--5---7---5---2---2--2-|
E|--5/7-----------|--3/5-----------|--5/7------------|--3---5---3---0---3--3-|

e|--3------3----|
B|--3------3----|
G|--0------0----|
D|--0------0----|
A|--2------2----|
E|--3------3----|

2nd Chorus

e|---------------------------|---------|-----------------|----3------------|
B|---------------------------|---------|--------------8--|----3------------|
G|--2---2--------2-----------|--9---7--|--9---7---9---7--|----0------------|
D|--2---2--------2--------2--|--9---7--|--9---7---9------|----0------------|
A|--0---0--------0--------2--|---------|-----------------|----2---2--3--4--|
E|----------3b-------3b---0--|---------|-----------------|----3------------|

e|----2----|
B|----3----|
G|----2----|
D|----0----|
A|---------|
E|---------|

3rd Verse (Clean tone) Let all notes ring where possible

e|--------------0-----------|--------------0-----------|
B|-----------0-----0--------|-----------3-----3--------|
G|--------0-----------0-----|--------2-----------2-----|
D|-----2--------------------|-----0-----------------0--|
A|--------------------------|--------------------------|
E|--0--------------------0--|--2-----------------------|

                             Don't let notes ring in this measure only
e|--------------0-----------|--------------3------|
B|-----------0-----0--------|-----------2-----2---|
G|--------0-----------0-----|--------2------------|
D|-----2-----------------2--|-----2---------------|
A|--------------------------|--0------------------|
E|--0-----------------------|---------------------|

e|--------------0-----------|--------------0-----------|
B|-----------0-----0--------|-----------3-----3--------|
G|--------0-----------0-----|--------2-----------2-----|
D|-----2--------------------|-----0-----------------0--|
A|--------------------------|--------------------------|
E|--0--------------------0--|--2-----------------------|

e|--------------0-----------|-----------------|--------------0-----------|
B|-----------0-----0--------|-----------------|-----------0-----0--------|
G|--------0-----------0-----|----2----0----2--|--------0-----------0-----|
D|-----2-----------------2--|----2----0----2--|-----2--------------------|
A|--------------------------|----0------------|--------------------------|
E|--0-----------------------|-----------------|--0--------------------0--|

e|--------------0-----------|--------------0-----------|--------------3------|
B|-----------3-----3--------|-----------0-----0--------|-----------2-----2---|
G|--------2-----------2-----|--------0-----------0-----|--------2------------|
D|-----0-----------------0--|-----2-----------------2--|-----2---------------|
A|--------------------------|--------------------------|--0------------------|
E|--2-----------------------|--0-----------------------|---------------------|

                                                        (Over driven tone)
e|--------------0-----------|--------------0-----------|--------2----------|
B|-----------0-----0--------|-----------3-----3--------|--3-----3----------|
G|--------0-----------0-----|--------2-----------2-----|--0-----2----------|
D|-----2--------------------|-----0--------------------|--2-----0----------|
A|--------------------------|--------------------0--2--|--3----------------|
E|--0--------------------0--|--2-----------------------|-------------3--2--|

e|-----------------------|---------2---------|------------|------2------|
B|-----------------------|--3------3---------|------------|------3------|
G|-----------------------|--0------2---------|------------|------2------|
D|--2---------2p0--------|--2------0---------|--2---------|------0------|
A|--2------2-------2-----|--3----------------|--2----/7---|-------------|
E|--0---3-------------0--|-------------3--2--|--0---------|-------------|

Outro

e|----------------------|----------------------|-----------------------|
B|----------8-----------|----------------------|-----------------------|
G|--7---9---7---9~~~~~--|----------5---7~~~~~--|--------0-----------5--|
D|--7---9-------9~~~~~--|--5---7---5---7~~~~~--|--0h2---0---5---7---5--|
A|----------------------|--5---7---------------|--0h2-------5---7------|
E|----------------------|----------------------|-----------------------|

e|-----------------------|----------------------|-----------------------|
B|--------8--------------|----------8-----------|-----------------------|
G|--7/9---7---9---7~~~~--|--7---9---7---9~~~~~--|----------5---7~~~~~~--|
D|--7/9-------9---7~~~~--|--7---9-------9~~~~~--|--5---7---5---7~~~~~~--|
A|-----------------------|----------------------|--5---7----------------|
E|-----------------------|----------------------|-----------------------|

e|---------------------|------------3------|--3---2----|---------------------|
B|----------8----------|------------3------|--3---3----|----------8----------|
G|--7---9---7---9---7--|--2---0-----0------|--0---2----|--7---9---7---9~~~~~-|
D|--7---9-------9---7--|--2---0-----0------|--0--------|--7---9---7---9~~~~~-|
A|---------------------|------------2------|-----------|---------------------|
E|---------------------|------------3------|-----------|---------------------|

e|----------------------|-------------------------|-----------------------|
B|----------------------|-------------------------|----------------8---7--|
G|----------7---7~~~~~--|------------------5------|--------7---9---7---7--|
D|--7---7---5---5~~~~~--|----------5---7---5---5--|--7/9---7---9----------|
A|--5---5---------------|--5---7---5---7-------5--|--7/9------------------|
E|----------------------|--5---7------------------|-----------------------|

e|---------|-------|----------------------|----------------------|
B|---------|-------|----------8-----------|----------------------|
G|----9----|-------|--7---9---7---9~~~~~--|----------5---7~~~~~--|
D|----9----|-------|--7---9-------9~~~~~--|--5---7---5---7~~~~~--|
A|----7----|-------|----------------------|--5---7---------------|
E|---------|-------|----------------------|----------------------|


e|-----------------------|-----------------------|----------------------|
B|-----------------------|--------8--------------|----------8-----------|
G|--------0-----------5--|--7/9---7---9---7~~~~--|--7---9---7---9~~~~~--|
D|--0h2---0---5---7---5--|--7/9-------9---7~~~~--|--7---9-------9~~~~~--|
A|--0h2-------5---7------|-----------------------|----------------------|
E|-----------------------|-----------------------|----------------------|

e|-----------------------|-----------------------------------|
B|-----------------------|-----------------------------------|
G|----------5---7~~~~~---|----------0---2---5-------------7--|
D|--5---7---5---7~~~~~---|--0---2---0---2---5---5---7/9---7--|
A|--5---7----------------|--0---2---------------5---7/9------|
E|-----------------------|-----------------------------------|

e|---------------------|----------------|----------------|-------------------|
B|------8---7----------|----------------|----------------|-------------------|
G|--9---7---7---9---7--|----------7/9---|----------5/7---|--------7---9---7--|
D|--9-----------9---7--|--7/9-----7/9---|--5/7-----5/7---|--7/9---7---9---7--|
A|---------------------|--7/9-----5/7---|--5/7-----3/5---|--7/9---5---7---5--|
E|---------------------|--5/7-----------|--3/5-----------|--5/7--------------|


e|------------------|--------------|--------------|------0------|
B|------------------|--------------|--------------|------0------|
G|------------------|--------------|--------------|------1------|
D|--5---7---5---2---|--------------|--------------|------2------|
A|--5---7---5---2---|--------------|--------------|------2------|
E|--3---5---3---0---|--------------|--------------|------0------|

Guitar II (Overdriven tone)

Intro

e|----------------------|---------------------|-----------------------|
B|----------8-----------|---------------------|-----------------------|
G|--7---9---7---9~~~~~--|----------5---7~~~~--|--------0-----------5--|
D|--7---9-------9~~~~~--|--5---7---5---7~~~~--|--0h2---0---5---7---5--|
A|----------------------|--5---7--------------|--0h2-------5---7------|
E|----------------------|---------------------|-----------------------|

e|-----------------------|----------------------|-----------------------|
B|--------8--------------|----------8-----------|-----------------------|
G|--7/9---7---9---7~~~~--|--7---9---7---9~~~~~--|----------5---7~~~~~~--|
D|--7/9-------9---7~~~~--|--7---9-------9~~~~~--|--5---7---5---7~~~~~~--|
A|-----------------------|----------------------|--5---7----------------|
E|-----------------------|----------------------|-----------------------|

e|-------------------|------------3------|--3---2----|
B|--------8----------|------------3------|--3---3----|
G|--7/9---7---9---7--|--2---0-----0------|--0---2----|
D|--7/9-------9---7--|--2---0-----0------|--0--------|
A|-------------------|------------2------|-----------|
E|-------------------|------------3------|-----------|

1st Verse (Clean tone) Let all notes ring where possible

e|-------------0----------|-------------0------|-------------0------|
B|----------3-----3-------|----------3-----3---|----------3-----3---|
G|-------0----------------|-------2------------|-------0------------|
D|------------------------|--------------------|--------------------|
A|------------------------|--------------------|--------------------|
E|--0------------------0--|--2-----------------|--0-----------------|

 Don't let notes ring in this measure only
e|--------------3--|-------------0----------|-------------0---------|
B|-----------2-----|----------3-----3-------|----------3-----3------|
G|--------2--------|-------0----------------|-------2---------------|
D|-----2-----------|------------------------|-----------------------|
A|--0--------------|------------------------|--------------------0--|
E|-----------------|--0------------------0--|--2--------------------|

e|--------2---|
B|--3-----3---|
G|--0-----2---|
D|--2-----0---|
A|--3---------|
E|------------|

Intro reprise (Over Driven tone)

e|----------------------|-----------------------|-----------------------|
B|----------8-----------|-----------------------|-----------------------|
G|--7---9---7---9~~~~~--|----------5---7~~~~~~--|--------0-----------5--|
D|--7---9-------9~~~~~--|--5---7---5---7~~~~~~--|--0h2---0---5---7---5--|
A|----------------------|--5---7----------------|--0h2-------5---7------|
E|----------------------|-----------------------|-----------------------|

e|--------------------------|-----------------------|-----------------|
B|----------8---------------|----------8------------|-----------------|
G|--7---9---7---9---7~~~~~--|----------7---9~~~~~~--|----------5---7--|
D|--7---9-------9---7~~~~~--|--7---9-------9~~~~~~--|--5---7---5---7--|
A|--------------------------|--7---9----------------|--5---7----------|
E|--------------------------|-----------------------|-----------------|

e|----------------------|------------3------|--3---2----|
B|-----------8----------|------------3------|--3---3----|
G|--7---9----7---9---7--|--2---0-----0------|--0---2----|
D|--7---9--------9---7--|--2---0-----0------|--0--------|
A|----------------------|------------2------|-----------|
E|----------------------|------------3------|-----------|

2nd Verse (Clean tone) Let all notes ring where possible

e|-------------0----------|-------------0------|-------------0------|
B|----------3-----3-------|----------3-----3---|----------3-----3---|
G|-------0----------------|-------2------------|-------0------------|
D|------------------------|--------------------|--------------------|
A|------------------------|--------------------|--------------------|
E|--0------------------0--|--2-----------------|--0-----------------|

 Don't let notes ring in this measure only
e|-----------3--|-------------0------|-------------0------|
B|--------2-----|----------3-----3---|----------3-----3---|
G|-----2--------|-------0------------|-------2------------|
D|--2-----------|--------------------|--------------------|
A|--------------|--------------------|--------------------|
E|--------------|--0-----------------|--2-----------------|

e|------------0------|-----------------|------------0--------------------------|
B|---------3-----3---|-----------------|---------3-----3-----------------------|
G|------0------------|----2----0----2--|------0--------------------------------|
D|-------------------|----2----0----2--|---------------------------------------|
A|-------------------|----0------------|---------------------------------------|
E|--0----------------|-----------------|--0----------------0-------------------|
e|------------0------|------------0------|-----------3---|------------0--------|
B|---------3-----3---|---------3-----3---|--------2------|---------3-----3-----|
G|------2------------|------0------------|-----2---------|------0--------------|
D|-------------------|-------------------|--2------------|---------------------|
A|-------------------|-------------------|---------------|---------------------|
E|--2----------------|--0----------------|---------------|--0------------------|

(Over driven tone)
e|--------2----------|-----------0--|--------2----|
B|--3-----3----------|-----------0--|--3-----3----|
G|--0-----2----------|-----------1--|--0-----2----|
D|--2-----0----------|--2---2-------|--2-----0----|
A|--3----------------|--2---2-------|--3----------|
E|-------------3--2--|--0---0-------|-------------|

Intro Reprise

e|----------------------|-----------------------|-----------------------|
B|----------8-----------|-----------------------|-----------------------|
G|--7---9---7---9~~~~~--|----------5---7~~~~~~--|--------0-----------5--|
D|--7---9-------9~~~~~--|--5---7---5---7~~~~~~--|--0h2---0---5---7---5--|
A|----------------------|--5---7----------------|--0h2-------5---7------|
E|----------------------|-----------------------|-----------------------|

e|--------------------------|-----------------------|---------------------|
B|----------8---------------|----------8------------|---------------------|
G|--7---9---7---9---7~~~~~--|----------7---9~~~~~~--|----------5---7~~~~--|
D|--7---9-------9---7~~~~~--|--7---9-------9~~~~~~--|--5---7---5---7~~~~--|
A|--------------------------|--7---9----------------|--5---7--------------|
E|--------------------------|-----------------------|---------------------|

e|----------------------|------------3------|
B|-----------8----------|------------3------|
G|--7---9----7---9---7--|--2---0-----0------|
D|--7---9--------9---7--|--2---0-----0------|
A|----------------------|------------2------|
E|----------------------|------------3------|

1st Chorus

e|-------------|----------------0---|------0---0---0---3--|--3----3---|
B|------3---2--|--3-------------0---|--3---0---3---0---0--|--3----3---|
G|--2---2---2--|--2-------------1---|--1---1---1---1---1--|--0----0---|
D|--2---4---2--|--4--------2--------|--2------------------|--0--------|
A|--0----------|-----------2--------|--2------------------|--2--------|
E|-------------|------3b---0--------|---------------------|--3--------|

 Let Ring
e|--2---2------|
B|--3-------3--|
G|--2----------|
D|--0----------|
A|-------------|
E|-------------|

Bridge (Clean tone)

  Let notes ring where possible
e|--------5------|--5----------------5------|--5----------------5------|
B|--1/2----------|--------------------------|--------------------------|
G|------------2--|------------2--2-------2--|------------2--2-------2--|
D|---------------|------2h4-----------------|------2h4-----------------|
A|---------------|--------------------------|--------------------------|
E|---------------|--------------------------|--------------------------|

e|--5--------------------------|--------------------5------|
B|-----------------------------|---------------------------|
G|------------2---------2---2--|----------------2-------2--|
D|------2h4-------2h4----------|--4p2----------------------|
A|-----------------------------|---------3--0--------------|
E|-----------------------------|---------------------------|

e|--5----------------5------|--5----------------5------|
B|--------------------------|--------------------------|
G|------------2--2-------2--|------------2--2-------2--|
D|------2h4-----------------|------2h4-----------------|
A|--------------------------|--------------------------|
E|--------------------------|--------------------------|


                            (Overdriven tone)
e|--5---------------5------|-------3---|
B|-------------------------|-------3---|
G|-----------2--2-------2--|--2----0---|
D|------2h4----------------|--2----0---|
A|-------------------------|--0----2---|
E|-------------------------|-------3---|

Main Solo

e|----------------------|-----------------------|----------------------|
B|----------------------|-----------------------|----------------------|
G|----------7---9~~~~~--|----------5---7~~~~~~--|----------7---9---7---|
D|--7---9---7---9~~~~~--|--5---7---5---7~~~~~~--|--7---9---7---9---7---|
A|--7---9---------------|--5---7----------------|--7---9---------------|
E|----------------------|-----------------------|----------------------|

e|----------------------|----------------------|-----------------------|
B|----------------------|----------------------|-----------------------|
G|----------------------|----------7---9~~~~~--|----------5---7~~~~~~--|
D|--5---7---5-------5---|--7---9---7---9~~~~~--|--5---7---5---7~~~~~~--|
A|--5---7---5---7---5---|--7---9---------------|--5---7----------------|
E|--------------7---3---|----------------------|-----------------------|

e|----------------------|----------------------|-----------------|
B|----------------------|----------------------|-----------------|
G|----------7---9---7---|----------------------|-----------7/9---|
D|--7---9---7---9---7---|--5---7---5-------5---|--7/9------7/9---|
A|--7---9---------------|--5---7---5---7---5---|--7/9------5/7---|
E|----------------------|--------------7---3---|--5/7------------|

e|----------------|-----------------|-------------------------------|
B|----------------|-----------------|-------------------------------|
G|----------5/7---|-----------7/9---|-------------------------------|
D|--5/7-----5/7---|--7/9------7/9---|--5---7---5--------------------|
A|--5/7-----3/5---|--7/9------5/7---|--5---7---5---7---------5---7--|
E|--3/5-----------|--5/7------------|--------------7---5/7----------|

e|----------------|----------------|-----------------|------------------|
B|----------------|----------------|-----------------|------------------|
G|----------7/9---|----------5/7---|-----------7/9---|------------------|
D|--7/9-----7/9---|--5/7-----5/7---|--7/9------7/9---|--5---7---5---2---|
A|--7/9-----5/7---|--5/7-----3/5---|--7/9------5/7---|--5---7---5---2---|
E|--5/7-----------|--3/5-----------|--5/7------------|--3---5---3---0---|

e|----3----|
B|----3----|
G|----0----|
D|----0----|
A|----2----|
E|----3----|

2nd Chorus

e|--------------------------|---0--------|--0---0---0---3--|--3----3---|
B|------3---2---3-----------|---0-----3--|--0---3---0---0--|--3----3---|
G|--2---2---2---2-----------|---1-----1--|--1---1---1---1--|--0----0---|
D|--2---4---2---4--------2--|---------2--|-----------------|--0--------|
A|--0--------------------2--|---------2--|-----------------|--2--------|
E|------------------3b---0--|------------|-----------------|--3--------|

Let Ring
e|--2---2------|
B|--3-------3--|
G|--2----------|
D|--0----------|
A|-------------|
E|-------------|


3rd Verse (Clean tone) Let all notes ring where possible

e|-------------0----------|-------------0------|-------------0------|
B|----------3-----3-------|----------3-----3---|----------3-----3---|
G|-------0----------------|-------2------------|-------0------------|
D|------------------------|--------------------|--------------------|
A|------------------------|--------------------|--------------------|
E|--0------------------0--|--2-----------------|--0-----------------|


 Don't let notes ring in this measure only
e|-----------3--|-------------0------|-------------0------|
B|--------2-----|----------3-----3---|----------3-----3---|
G|-----2--------|-------0------------|-------2------------|
D|--2-----------|--------------------|--------------------|
A|--------------|--------------------|--------------------|
E|--------------|--0-----------------|--2-----------------|

e|------------0------|-----------------|------------0--------------------------|
B|---------3-----3---|-----------------|---------3-----3-----------------------|
G|------0------------|----2----0----2--|------0--------------------------------|
D|-------------------|----2----0----2--|---------------------------------------|
A|-------------------|----0------------|---------------------------------------|
E|--0----------------|-----------------|--0----------------0-------------------|
e|------------0------|------------0------|-----------3---|------------0--------|
B|---------3-----3---|---------3-----3---|--------2------|---------3-----3-----|
G|------2------------|------0------------|-----2---------|------0--------------|
D|-------------------|-------------------|--2------------|---------------------|
A|-------------------|-------------------|---------------|---------------------|
E|--2----------------|--0----------------|---------------|--0------------------|


                                    (Over driven tone)
e|------------0--------|--------2----------|-----------0---0--|
B|---------3-----------|--3-----3----------|-----------0---0--|
G|------2--------------|--0-----2----------|-----------1---1--|
D|---------------------|--2-----0----------|--2---2--------2--|
A|---------------0--2--|--3----------------|--2---2-----------|
E|--2------------------|-------------3--2--|--0---0-----------|

e|--------2----------|---------0-----|-----2----|
B|--3-----3----------|---------0-----|-----3----|
G|--0-----2----------|---------1-----|-----2----|
D|--2-----0----------|--2------2-----|-----0----|
A|--3----------------|--2------2-----|----------|
E|-------------3--2--|--0------0-----|----------|

Outro

e|----------------------|----------------------|-----------------------|
B|----------8-----------|----------------------|-----------------------|
G|--7---9---7---9~~~~~--|----------5---7~~~~~--|--------0-----------5--|
D|--7---9-------9~~~~~--|--5---7---5---7~~~~~--|--0h2---0---5---7---5--|
A|----------------------|--5---7---------------|--0h2-------5---7------|
E|----------------------|----------------------|-----------------------|

e|-----------------------|----------------------|-----------------------|
B|--------8--------------|----------8-----------|-----------------------|
G|--7/9---7---9---7~~~~--|--7---9---7---9~~~~~--|----------5---7~~~~~~--|
D|--7/9-------9---7~~~~--|--7---9-------9~~~~~--|--5---7---5---7~~~~~~--|
A|-----------------------|----------------------|--5---7----------------|
E|-----------------------|----------------------|-----------------------|

e|---------------------|------------3--|---------------------|
B|----------8----------|------------3--|----------8----------|
G|--7---9---7---9---7--|--2---0-----0--|--7---9---7---9~~~~~-|
D|--7---9-------9---7--|--2---0-----0--|--7---9---7---9~~~~~-|
A|---------------------|------------2--|---------------------|
E|---------------------|------------3--|---------------------|

e|----------------------|-------------------------|-----------------------|
B|----------------------|-------------------------|----------------8---7--|
G|----------7---7~~~~~--|------------------5------|--------7---9---7---7--|
D|--7---7---5---5~~~~~--|----------5---7---5---5--|--7/9---7---9----------|
A|--5---5---------------|--5---7---5---7-------5--|--7/9------------------|
E|----------------------|--5---7------------------|-----------------------|

e|---------|-------|----------------------|----------------------|
B|---------|-------|----------8-----------|----------------------|
G|----9----|-------|--7---9---7---9~~~~~--|----------5---7~~~~~--|
D|----9----|-------|--7---9-------9~~~~~--|--5---7---5---7~~~~~--|
A|----7----|-------|----------------------|--5---7---------------|
E|---------|-------|----------------------|----------------------|

e|-----------------------|-----------------------|----------------------|
B|-----------------------|--------8--------------|----------8-----------|
G|--------0-----------5--|--7/9---7---9---7~~~~--|--7---9---7---9~~~~~--|
D|--0h2---0---5---7---5--|--7/9-------9---7~~~~--|--7---9-------9~~~~~--|
A|--0h2-------5---7------|-----------------------|----------------------|
E|-----------------------|-----------------------|----------------------|

e|-----------------------|-----------------------------------|
B|-----------------------|-----------------------------------|
G|----------5---7~~~~~---|----------0---2---5-------------7--|
D|--5---7---5---7~~~~~---|--0---2---0---2---5---5---7/9---7--|
A|--5---7----------------|--0---2---------------5---7/9------|
E|-----------------------|-----------------------------------|

e|---------------------|----------------|----------------|-------------------|
B|------8---7----------|----------------|----------------|-------------------|
G|--9---7---7---9---7--|----------7/9---|----------5/7---|--------7---9---7--|
D|--9-----------9---7--|--7/9-----7/9---|--5/7-----5/7---|--7/9---7---9---7--|
A|---------------------|--7/9-----5/7---|--5/7-----3/5---|--7/9---5---7---5--|
E|---------------------|--5/7-----------|--3/5-----------|--5/7--------------|

		    Flick pick up switch back and forth
e|------------------0--|--------------|--------------|-------------|
B|------------------0--|--------------|--------------|-------------|
G|------------------1--|--------------|--------------|------9------|
D|--5---7---5---2------|--------------|--------------|------9------|
A|--5---7---5---2------|--------------|--------------|------7------|
E|--3---5---3---0------|--------------|--------------|-------------|

Slide guitar 2nd fret

On first string move slide down from where the 28th fret would be

second fill repeat but start at where the 25th fret would be

Third fill repeat first fill

fourth fill start where the 24th fret would be



lead into main solo and main solo
e|-------12------------|-----------------------|-------------|---------------|
B|--12b------12br--10--|--13br--13p10------10--|---------12--|-15b--15b--12--|
G|---------------------|---------------12------|--11/13------|---------------|
D|---------------------|-----------------------|-------------|---------------|
A|---------------------|-----------------------|-------------|---------------|
E|---------------------|-----------------------|-------------|---------------|

e|-------------------------------------------------------|
B|--15--14--12------14--12------14--12p10------10p8------|
G|--------------14----------14-------------12--------11--|
D|-------------------------------------------------------|
A|-------------------------------------------------------|
E|-------------------------------------------------------|

e|----------------------------|----------------------------|
B|--10--8------------------8--|--10--8---------------------|
G|---------9p7-----9--7h9-----|---------9p7----------------|
D|--------------9-------------|--------------9--7--9--7\5--|
A|----------------------------|----------------------------|
E|----------------------------|----------------------------|

e|--------------------------------|------7--10--12p10------15b--|
B|---------------------8p7--10p8--|-10b----------------12-------|
G|--------7/9--7--9p7-------------|-----------------------------|
D|--7--5--------------------------|-----------------------------|
A|--------------------------------|-----------------------------|
E|--------------------------------|-----------------------------|

e|--15b--15--15b--|--15br--12--15--12p10---------------------|
B|----------------|-----------------------12--12--12p10------|
G|----------------|--------------------------------------12--|
D|----------------|------------------------------------------|
A|----------------|------------------------------------------|
E|----------------|------------------------------------------|

e|---------------------------------|---------------------------------|
B|---------------------------------|---------------------------------|
G|--14--12--11--12p11--------------|-----------------12--14--12--14--|
D|---------------------14--12--14--|---------12--14------------------|
A|---------------------------------|-12--14--------------------------|
E|---------------------------------|---------------------------------|

e|-------------------------------|-------------------------------------|
B|--12h13p12------12-------------|-------------------------------------|
G|------------14------14p12------|-12h14p12\11--12p11--------------12--|
D|---------------------------14--|---------------------14--12--14------|
A|-------------------------------|-------------------------------------|
E|-------------------------------|-------------------------------------|

e|------------------------|------------------------------------------|
B|------------------------|-10/12--12--12--10/12--12--12--10/12--12--|
G|----------14p12---------|------------------------------------------|
D|--14--12---------14p12--|------------------------------------------|
A|------------------------|------------------------------------------|
E|------------------------|------------------------------------------|

e|---------------------------------|-----------------------------------------|
B|--12-----------------------------|-----------------------------------------|
G|------14--12--11--12p11----------|---------------------------14p12--16p14--|
D|-------------------------14--12--|---------12/14--12--14p12----------------|
A|---------------------------------|-12--10----------------------------------|
E|---------------------------------|-----------------------------------------|

e|-----------12-------------12----------------------------|
B|-------12------15p12--15--------------------------------|
G|--14b-------------------------14br--12------12--14--12--|
D|----------------------------------------14--------------|
A|--------------------------------------------------------|
E|--------------------------------------------------------|

e|-------------------------------|
B|--------------------15b\/\/\/--|
G|--14--12--15p14p12-------------|
D|-------------------------------|
A|-------------------------------|
E|-------------------------------|

Fills for 3rd Verse

1st fill Harmonic on first string where the 24th fret would be

2nd fill Harmonic at 24th fret but on second string

3rd fill Move slide down from 30th fret on 1st string

4th fill repeat on 30th fret but on 2nd string


Harmony leading into outro

Guitar I
e|-----------------10---|
B|------------10--------|
G|-------11-------------|
D|--12------------------|
A|----------------------|
E|----------------------|

Guitar II
e|--------------------14--|
B|---------------15-------|
G|----------14------------|
D|--12/16-----------------|
A|------------------------|
E|------------------------|

Outro Solo

e|------------|----|-------------|----------------12-----------|
B|----15b-----|----|--15b---15b--|-15--15--15p12------15--15b--|
G|------------|----|-------------|-----------------------------|
D|------------|----|-------------|-----------------------------|
A|------------|----|-------------|-----------------------------|
E|------------|----|-------------|-----------------------------|

e|--12----------------------12----------------------|
B|------15--12--14--12----------15--12--------------|
G|----------------------12--------------12--14--12--|
D|--------------------------------------------------|
A|--------------------------------------------------|
E|--------------------------------------------------|

e|------------------------------------|--------------------|
B|------------------------------------|--------------------|
G|--14br--12--14--12--------------12--|-14b--14br--12------|
D|--------------------14\--12/14------|----------------14--|
A|------------------------------------|--------------------|
E|------------------------------------|--------------------|

e|-----------------------|-17b--17pbr--15---------------------|
B|-------------------15--|-----------------17--15-------------|
G|--------------14-------|-------------------------16\14--12--|
D|--10/12--16------------|------------------------------------|
A|-----------------------|------------------------------------|
E|-----------------------|------------------------------------|


                 Delay on last note
e|------------------------------|
B|---------------15/------------|
G|--12\--14--12-----------------|
D|------------------------------|
A|------------------------------|
E|------------------------------|


************************************

| /   slide up
| \   slide down
| h   hammer-on
| p   pull-off
| ~   vibrato
| +   harmonic
| x   Mute note
| b   Bend
| pb  Pre-bend
| br  Bend release
| pbr Pre-bend release
| brb Bend release bend

************************************
Tap to rate this tab
# A B C D E F G H I J K L M N O P Q R S T U V W X Y Z