Song name
# A B C D E F G H I J K L M N O P Q R S T U V W X Y Z

Blackfoot - Madness tab

-----------------------------------------------------------------------------
Madness - Blackfoot
                                Flyin' High
              Words and Music by Rick Medlocke and Jakson Spiers
-----------------------------------------------------------------------------
Tabbed by: Duane Baldwin
E-mail: duaneandJulie@gmail.com

Tuning: Half step down

This tab, as with all my others of this type, are copied 
straight from  the Guitar Pro versions I created for the song. 
On the record, Medlocke and Hargrett trade off 
during the main solo and I divided them between tracks; also 
on the guitar pro to remain faithful to the recording. 
That being said, you will find the main solo split 
between the two guitars, while the outro solo 
is with guitar one completely.

Guitar I (Overdriven)

Intro

  (Drums only)
e|----------------|----------------|----------------|----------------|
B|----------------|----------------|----------------|----------------|
G|----------------|----------------|----------------|----------------|
D|----------------|----------------|----------------|----------------|
A|----------------|----------------|----------------|----------------|
E|----------------|----------------|----------------|------------2/--|

e|-----------------------|--------------|----------------------------|
B|-----------------------|--------------|----------------------------|
G|--------------7--------|--------7-----|--------------7--7----------|
D|-----9--7--9--7--9-----|-----7--7--9--|--------7--9--7--7--9p7-----|
A|-----9--7--9-----9--7--|--9--7-----9--|--7--9--7--9--------9p7--9--|
E|--7-----------------7--|--9-----------|--7--9-------------------9--|

e|-------------|---------------------|--------------|
B|-------------|---------------------|--------------|
G|-------------|------------7--------|--------7-----|
D|--7--7--7----|---9--7--9--7--9-----|-----7--7--9--|
A|--7--7--7--5/|7--9--7--9-----9--7--|--9--7-----9--|
E|-----------5/|7-----------------7--|--9-----------|

e|----------------------------|-------------|---------------------|
B|----------------------------|-------------|---------------------|
G|--------------7--7----------|-------------|------------7--------|
D|--------7--9--7--7--9p7-----|--7--7--7----|---9--7--9--7--9-----|
A|--7--9--7--9--------9p7--9--|--7--7--7--5/|7--9--7--9-----9--7--|
E|--7--9-------------------9--|-----------5/|7-----------------7--|

e|--------------|----------------------------|-------------|
B|--------------|----------------------------|-------------|
G|--------7-----|--------------7--7----------|-------------|
D|-----7--7--9--|--------7--9--7--7--9p7-----|--7--7--7----|
A|--9--7-----9--|--7--9--7--9--------9p7--9--|--7--7--7--5/|
E|--9-----------|--7--9-------------------9--|-----------5/|

e|----------------------------|------------------|
B|----------------------------|------------------|
G|--------------7--9--9br--7--|--9--7---------7--|
D|-----9--7--9--7--9--9br--7--|--9--7--9p7h9--7--|
A|--7--9--7--9----------------|--------9p7h9-----|
E|--7-------------------------|------------------|

e|-------------------------|-------------|---------------------|
B|-------------------------|-------------|---------------------|
G|-----------7--7----------|-------------|------------7--------|
D|-----7--9--7--7--9p7-----|--7--7--7----|---9--7--9--7--9-----|
A|--9--7--9--------9p7--9--|--7--7--7--5/|7--9--7--9-----9--7--|
E|--9-------------------9--|-----------5/|7-----------------7--|

e|--------------|----------------------------|-------------|
B|--------------|----------------------------|-------------|
G|--------7-----|--------------7--7----------|-------------|
D|-----7--7--9--|--------7--9--7--7--9p7-----|--7--7--7----|
A|--9--7-----9--|--7--9--7--9--------9p7--9--|--7--7--7--5/|
E|--9-----------|--7--9-------------------9--|-----------5/|

e|----------------------------|------------------|-------------------------|
B|----------------------------|------------------|-------------------------|
G|--------------7--9--9br--7--|--9--7---------7--|-----------7--7----------|
D|-----9--7--9--7--9--9br--7--|--9--7--9p7h9--7--|-----7--9--7--7--9p7-----|
A|--7--9--7--9----------------|--------9p7h9-----|--9--7--9--------9p7--9--|
E|--7-------------------------|------------------|--9-------------------9--|

1st Verse

e|-----------------|--------------|------------------|----------------|
B|-----------------|--------------|------------------|----------------|
G|--2---2---2---2--|--4--------4--|--2------------2--|--4----------4--|
D|--2---2---2---2--|--4--------4--|--2---------2-----|--4----------4--|
A|--0---0---0---0--|--2--------2--|--0-----3b--------|--2----------2--|
E|-----------------|--------------|------------------|----------------|

e|---------------------|----------------|-----------------|----------------|
B|---------------------|----------------|-----------------|----------------|
G|-----------4------2--|--4----------4--|--2----------2---|--4-----2----4--|
D|-----------4------2--|--4----------4--|--2----------2---|--4-----2----4--|
A|-----------2------0--|--2----------2--|--0----------0---|--2-----0----2--|
E|--3--2--0-----3b-----|----------------|-----------------|----------------|

e|---------------------|----------------|-----------------|----------------|
B|---------------------|----------------|-----------------|----------------|
G|-----------4------2--|--4----------4--|--2----------2---|--4-----2----4--|
D|-----------4------2--|--4----------4--|--2----------2---|--4-----2----4--|
A|-----------2------0--|--2----------2--|--0----------0---|--2-----0----2--|
E|--3--2--0-----3b-----|----------------|-----------------|----------------|

e|---------------------|----------------|-----------------|----------------|
B|---------------------|----------------|-----------------|----------------|
G|-----------4------2--|--4----------4--|--2----------2---|--4-----2----4--|
D|-----------4------2--|--4----------4--|--2----------2---|--4-----2----4--|
A|-----------2------0--|--2----------2--|--0----------0---|--2-----0----2--|
E|--3--2--0-----3b-----|----------------|-----------------|----------------|

e|---------------------|
B|---------------------|
G|-----------4------2--|
D|-----------4------2--|
A|-----------2------0--|
E|--3--2--0-----3b-----|

1st Chorus


e|--0------------------|--3--------------|-----------|-----------------------|
B|--0------------------|--3--------------|-----------|-----------------------|
G|--1------------------|--0-------2---4--|-----5-----|--7---7----------------|
D|--2-----------2------|--0-------2---4--|-----5-----|--7---7--9p7-----7--9--|
A|--2------------------|--2-------0---2--|-----3-----|---------9p7--9--7--9--|
E|--0------3h4-----3---|--3--------------|-----------|--------------9--------|

e|--0------------------|--3--------------|-----------------------|
B|--0------------------|--3--------------|-----------------------|
G|--1------------------|--0-------2---4--|--5--5--5--5--5--5-----|
D|--2-----------2------|--0-------2---4--|--5--5--5--5--5--5-----|
A|--2------------------|--2-------0---2--|--3--3--3--3--3--3---5/|
E|--0------3h4-----3---|--3--------------|---------------------5/|

Intro Reprise

e|----------------------|--------------|----------------------------|
B|----------------------|--------------|----------------------------|
G|-------------7--------|--------7-----|--------------7--7----------|
D|----9--7--9--7--9-----|-----7--7--9--|--------7--9--7--7--9p7-----|
A|-7--9--7--9-----9--7--|--9--7-----9--|--7--9--7--9--------9p7--9--|
E|-7-----------------7--|--9-----------|--7--9-------------------9--|

e|-------------|---------------------|--------------|
B|-------------|---------------------|--------------|
G|-------------|------------7--------|--------7-----|
D|--7--7--7----|---9--7--9--7--9-----|-----7--7--9--|
A|--7--7--7--5/|7--9--7--9-----9--7--|--9--7-----9--|
E|-----------5/|7-----------------7--|--9-----------|

e|----------------------------|-------------|----------------------------|
B|----------------------------|-------------|----------------------------|
G|--------------7--7----------|-------------|--------------7--9--9br--7--|
D|--------7--9--7--7--9p7-----|--7--7--7----|-----9--7--9--7--9--9br--7--|
A|--7--9--7--9--------9p7--9--|--7--7--7--5/|--7--9--7--9----------------|
E|--7--9-------------------9--|-----------5/|--7-------------------------|

e|------------------|----------------------------|
B|------------------|----------------------------|
G|--9--7---------7--|--------------7--7----------|
D|--9--7--9p7h9--7--|--------7--9--7--7--9p7-----|
A|--------9p7h9-----|--7--9--7--9--------9p7--9--|
E|------------------|--7--9-------------------9--|

2nd Verse

e|-----------------|--------------|------------------|----------------|
B|-----------------|--------------|------------------|----------------|
G|--2---2---2---2--|--4--------4--|--2-----------2---|--4----------4--|
D|--2---2---2---2--|--4--------4--|--2-----------2---|--4----------4--|
A|--0---0---0---0--|--2--------2--|--0-----------0---|--2----------2--|
E|-----------------|--------------|------------------|----------------|

e|-------------------|----------------|-------------------|-----------------|
B|-------------------|----------------|----------------3--|-----------------|
G|-----------4-------|--4----------4--|--2----------2--2--|--4---4---4---4--|
D|-----------4-------|--4----------4--|--2----------2--0--|--4---4---4---4--|
A|-----------2-------|--2----------2--|--0----------0-----|--2---2---2---2--|
E|--3--2--0-----3b---|----------------|-------------------|-----------------|

e|-------------------|----------------|-------------------|---------------|
B|-------------------|----------------|----------------3--|---------------|
G|-----------4-------|--4----------4--|--2----------2--2--|--4-----2---4--|
D|-----------4-------|--4----------4--|--2----------2--0--|--4-----2---4--|
A|-----------2-------|--2----------2--|--0----------0-----|--2-----0---2--|
E|--3--2--0-----3b---|----------------|-------------------|---------------|

e|-------------------|----------------|-----------------|----------------|
B|-------------------|----------------|-----------------|----------------|
G|-----------4-------|--4----------4--|--2----------2---|--4-----2----4--|
D|-----------4-------|--4----------4--|--2----------2---|--4-----2----4--|
A|-----------2-------|--2----------2--|--0----------0---|--2-----0----2--|
E|--3--2--0-----3b---|----------------|-----------------|----------------|

e|-------------------|
B|-------------------|
G|-----------4-------|
D|-----------4-------|
A|-----------2-------|
E|--3--2--0-----3b---|

2nd Chorus

e|---------------------|--3--------------|-----------|-----------------------|
B|---------------------|--3--------------|-----------|-----------------------|
G|---------------------|--0-------2---4--|-----5-----|--7---7----------------|
D|--2-----------2------|--0-------2---4--|-----5-----|--7---7--9p7-----7--9--|
A|--2------------------|--2-------0---2--|-----3-----|---------9p7--9--7--9--|
E|--0------3h4-----3---|--3--------------|-----------|--------------9--------|

e|---------------------|--3--------------|-----------------------|
B|---------------------|--3--------------|-----------------------|
G|---------------------|--0-------2---4--|--5--5--5--5--5--5-----|
D|--2-----------2------|--0-------2---4--|--5--5--5--5--5--5-----|
A|--2------------------|--2-------0---2--|--3--3--3--3--3--3---5/|
E|--0------3h4-----3---|--3--------------|---------------------5/|


2nd Intro Reprise

e|----------------------|--------------|----------------------------|
B|----------------------|--------------|----------------------------|
G|-------------7--------|--------7-----|--------------7--7----------|
D|----9--7--9--7--9-----|-----7--7--9--|--------7--9--7--7--9p7-----|
A|-7--9--7--9-----9--7--|--9--7-----9--|--7--9--7--9--------9p7--9--|
E|-7-----------------7--|--9-----------|--7--9-------------------9--|

e|-------------|---------------------|--------------|
B|-------------|---------------------|--------------|
G|-------------|------------7--------|--------7-----|
D|--7--7--7----|---9--7--9--7--9-----|-----7--7--9--|
A|--7--7--7--5/|7--9--7--9-----9--7--|--9--7-----9--|
E|-----------5/|7-----------------7--|--9-----------|

e|----------------------------|-------------|----------------------------|
B|----------------------------|-------------|----------------------------|
G|--------------7--7----------|-------------|--------------7--9--9br--7--|
D|--------7--9--7--7--9p7-----|--7--7--7----|-----9--7--9--7--9--9br--7--|
A|--7--9--7--9--------9p7--9--|--7--7--7--5/|--7--9--7--9----------------|
E|--7--9-------------------9--|-----------5/|--7-------------------------|

e|------------------|----------------------------|-------------|
B|------------------|----------------------------|-------------|
G|--9--7---------7--|--------------7--7----------|-------------|
D|--9--7--9p7h9--7--|--------7--9--7--7--9p7-----|--7--7--7----|
A|--------9p7h9-----|--7--9--7--9--------9p7--9--|--7--7--7--5/|
E|------------------|--7--9-------------------9--|-----------5/|

e|----------------------|--------------|----------------------------|--------|
B|----------------------|--------------|----------------------------|--------|
G|-------------7--------|--------7-----|--------------7--7----------|----2---|
D|----9--7--9--7--9-----|-----7--7--9--|--------7--9--7--7--9p7-----|----2---|
A|-7--9--7--9-----9--7--|--9--7-----9--|--7--9--7--9--------9p7--9--|----0---|
E|-7-----------------7--|--9-----------|--7--9-------------------9--|--------|

Main Solo

e|-------------------------------|--------------------------------------------|
B|--7--10p7h10p7h10p7h10p7h10p7h-|-10p7h10p7h10p7h10p7h10p7h10p7h10p7h10--13b-|
G|-------------------------------|--------------------------------------------|
D|-------------------------------|--------------------------------------------|
A|-------------------------------|--------------------------------------------|
E|-------------------------------|--------------------------------------------|

e|--------------------------|---------------------------------------|
B|--13b--13pbr--10----------|---------10--12p10------10--12p10------|
G|------------------11------|--9--11-------------11-------------11--|
D|----------------------12--|---------------------------------------|
A|--------------------------|---------------------------------------|
E|--------------------------|---------------------------------------|

e|--10--10--7h10p7------7------------7-----------|
B|------------------10-----10--7--------10p7-----|
G|--------------------------------9-----------7--|
D|-----------------------------------------------|
A|-----------------------------------------------|
E|-----------------------------------------------|
						
e|-------------------------------------------------|------------------|
B|-------------------------------------------------|------------------|
G|--7--9p7-----7-----------------------------------|---4---------4----|
D|----------9-----9p7-----7------------------------|---4---------4----|
A|---------------------9-----9p7\5--7--5-----------|---2---------2----|
E|----------------------------------------7--5--7\-|------------------|

e|----------------|---------------------|---------------------|
B|----------------|---------------------|---------------------|
G|---2--------2---|--4----4----4----4---|------------4--------|
D|---2--------2---|--4----4----4----4---|------------4--------|
A|---0--------0---|--2----2----2----2---|------------2--------|
E|----------------|---------------------|--3--2--0-------3b---|

e|--10--7------7--10--10b--12--10------|--10b--10pbr--7--7------|
B|---------10----------------------12--|--------------------10--|
G|-------------------------------------|------------------------|
D|-------------------------------------|------------------------|
A|-------------------------------------|------------------------|
E|-------------------------------------|------------------------|

e|--------------------7-----------------|------------------------------|
B|---------------10b-----10--7----------|------------------------------|
G|--9br--7--9p7-----------------9p7-----|--7--9p7-----7----------------|
D|-----------------------------------9--|----------9-----9p7-----7--9--|
A|--------------------------------------|---------------------9--------|
E|--------------------------------------|------------------------------|

e|-----------------|-----------------|----------------------|
B|-----------------|-----------------|----------------------|
G|---4----4----4---|---2----2----2---|---4----4----4----4---|
D|---4----4----4---|---2----2----2---|---4----4----4----4---|
A|---2----2----2---|---0----0----0---|---2----2----2----2---|
E|-----------------|-----------------|----------------------|

e|-------------------|--9hb--9hb--9hbr--7--|--9--9--9--7--9---|
B|-------------------|---------------------|------------------|
G|-----------4---2---|---------------------|------------------|
D|-----------4---2---|---------------------|------------------|
A|-----------2---0---|---------------------|------------------|
E|--3--2--0----------|---------------------|------------------|


e|-------7--------------------------------------|
B|--10b-----10--8p7--------7--------------------|
G|-------------------9--7-----9--7-----7--------|
D|----------------------------------9-----9--7--|
A|----------------------------------------------|
E|----------------------------------------------|

Bridge

e|------------------------------------|------------------------------------|
B|------------------------------------|------------------------------------|
G|--9--9--9p7-----9--9--7--9p7-----7--|--9--9--9p7-----9--9--7--9p7-----7--|
D|--9--9--9p7--9--9--9--7--9p7--9--7--|--9--9--9p7--9--9--9--7--9p7--9--7--|
A|-------------9----------------9-----|-------------9----------------9-----|
E|------------------------------------|------------------------------------|

e|---------------------------------|---------------------------------------|
B|---------------------------------|---------------------------------------|
G|--9--9--9p7-----9--9--7--9p7-----|--9p7-----9p7-----9p7-----9p7-----9p7--|
D|--9--9--9p7--9--9--9--7--9p7--9--|--9p7--9--9p7--9--9p7--9--9p7--9--9p7--|
A|-------------9----------------9--|-------9-------9-------9-------9-------|
E|---------------------------------|---------------------------------------|

      
                 (Drum Break)           
e|--------------|-------------------|-------------------|-------------------|
B|--------------|-------------------|-------------------|-------------------|
G|--------------|-------------------|-------------------|-------------------|
D|--9--7--9-----|-------------------|-------------------|-------------------|
A|--9--7--9-----|-------------------|-------------------|-------------------|
E|--------------|-------------------|-------------------|-------------------|

3rd Verse

e|--------------|-------------------|--------------------|
B|--------------|----------------3--|--------------------|
G|--4--------4--|--2---------2---2--|--4----4----4----4--|
D|--4--------4--|--2---------2---0--|--4----4----4----4--|
A|--2--------2--|--0---------0------|--2----2----2----2--|
E|--------------|-------------------|--------------------|

e|---------------------|---------------|------------------|-----------------|
B|---------------------|---------------|---------------3--|-----------------|
G|-----------4------2--|--4---------4--|--2---------2--2--|--4---4---4---4--|
D|-----------4------2--|--4---------4--|--2---------2--0--|--4---4---4---4--|
A|-----------2------0--|--2---------2--|--0---------0-----|--2---2---2---2--|
E|--3--2--0-----3b-----|---------------|------------------|-----------------|

e|---------------------|----------------|-----------------|-----------------|
B|---------------------|----------------|--------------3--|-----------------|
G|-----------4------2--|--4----------4--|--2--------2--2--|--4---4---4---4--|
D|-----------4------2--|--4----------4--|--2--------2-----|--4---4---4---4--|
A|-----------2------0--|--2----------2--|--0--------0-----|--2---2---2---2--|
E|--3--2--0-----3b-----|----------------|-----------------|-----------------|

e|---------------------|----------------|-----------------|-----------------|
B|---------------------|----------------|-----------------|-----------------|
G|-----------4------2--|--4----------4--|--2----------2---|--4---4---4---4--|
D|-----------4------2--|--4---x---x--4--|--2----------2---|--4---4---4---4--|
A|-----------2------0--|--2---x---x--2--|--0----------0---|--2---2---2---2--|
E|--3--2--0-----3b-----|----------------|-----------------|-----------------|

e|--------------------|
B|--------------------|
G|-----------4----4\--|
D|-----------4----4\--|
A|-----------2----2\--|
E|--3--2--0-----------|

3rd  Chorus

e|---------------------|--3--------------|-----------|-----------------------|
B|---------------------|--3--------------|-----------|-----------------------|
G|---------------------|--0-------2---4--|-----5-----|--7---7----------------|
D|--2-----------2------|--0-------2---4--|-----5-----|--7---7--9p7-----7--9--|
A|--2------------------|--2-------0---2--|-----3-----|---------9p7--9--7--9--|
E|--0------3h4-----3---|--3--------------|-----------|--------------9--------|

e|-------------------|--3--------------|-----------------------|
B|-------------------|--3--------------|-----------------------|
G|-------------------|--0-------2---4--|--5--5--5--5--5--5-----|
D|--2---------2------|--0-------2---4--|--5--5--5--5--5--5-----|
A|--2----------------|--2-------0---2--|--3--3--3--3--3--3---5/|
E|--0------3-----3---|--3--------------|---------------------5/|

3rd Intro Reprise

e|----------------------|--------------|----------------------------|
B|----------------------|--------------|----------------------------|
G|-------------7--------|--------7-----|--------------7--7----------|
D|----9--7--9--7--9-----|-----7--7--9--|--------7--9--7--7--9p7-----|
A|-7--9--7--9-----9--7--|--9--7-----9--|--7--9--7--9--------9p7--9--|
E|-7-----------------7--|--9-----------|--7--9-------------------9--|

e|-------------|---------------------|--------------|
B|-------------|---------------------|--------------|
G|-------------|------------7--------|--------7-----|
D|--7--7--7----|---9--7--9--7--9-----|-----7--7--9--|
A|--7--7--7--5/|7--9--7--9-----9--7--|--9--7-----9--|
E|-----------5/|7-----------------7--|--9-----------|

e|----------------------------|------------|
B|----------------------------|------------|
G|--------------7--7----------|------------|
D|--------7--9--7--7--9p7-----|--7----7----|
A|--7--9--7--9--------9p7--9--|--7----7----|
E|--7--9-------------------9--|------------|

Outro Solo /w Wah Wah

e|--------------------------------|-----------------------------|
B|------7------7------------------|-----------------------------|
G|--9b-----9b-----9b--9b--9br--7--|--9p7-----7--9b--7-----7--9--|
D|--------------------------------|-------9------------9--------|
A|--------------------------------|-----------------------------|
E|--------------------------------|-----------------------------|

e|---------7--10p7------10p7------10p7------10p7------|
B|------7-----------10--------10--------10--------10--|
G|--9b------------------------------------------------|
D|----------------------------------------------------|
A|----------------------------------------------------|
E|----------------------------------------------------|

e|--10p7------10p7------10p7------10p7------10p7-----7--|
B|--------10--------10--------10--------10--------7-----|
G|------------------------------------------------------|
D|------------------------------------------------------|
A|------------------------------------------------------|
E|------------------------------------------------------|

e|----------------------------------------------------------|
B|--10--10b--10pb--10pb--10pb--10pb--10p--10pb--10pb--10pb--|
G|----------------------------------------------------------|
D|----------------------------------------------------------|
A|----------------------------------------------------------|
E|----------------------------------------------------------|

e|----------------------------------------------------|
B|--10pb--10pb--10--9--7-----10-----7-----------------|
G|------------------------9------9-----9--7-----7--9--|
D|-------------------------------------------9--------|
A|----------------------------------------------------|
E|----------------------------------------------------|

e|------------------------------------------------|
B|------------------------------------------------|
G|--9brp+--7-----9-----7--------------------------|
D|------------9-----9-----9p7--------------7------|
A|-----------------------------9--7--7--9-----9\--|
E|------------------------------------------------|

Outro

 * Hold chord over four measures with a small bar dip
e|----------|-----------------|-----------------|-----------------|
B|----------|-----------------|-----------------|-----------------|
G|--2*------|-----------------|-----------------|-----------------|
D|--2-------|-----------------|-----------------|-----------------|
A|--0-------|-----------------|-----------------|-----------------|
E|----------|-----------------|-----------------|-----------------|

e|------------------------------------|------------------------------------|
B|------------------------------------|------------------------------------|
G|--9--9--9p7-----9--9--7--9p7-----7--|--9--9--9p7-----9--9--7--9p7-----7--|
D|--9--9--9p7--9--9--9--7--9p7--9--7--|--9--9--9p7--9--9--9--7--9p7--9--7--|
A|-------------9----------------9-----|-------------9----------------9-----|
E|------------------------------------|------------------------------------|

e|---------------------------------|---------------------------------------|
B|---------------------------------|---------------------------------------|
G|--9--9--9p7-----9--9--7--9p7-----|--9p7-----9p7-----9p7-----9p7-----9p7--|
D|--9--9--9p7--9--9--9--7--9p7--9--|--9p7--9--9p7--9--9p7--9--9p7--9--9p7--|
A|-------------9----------------9--|-------9-------9-------9-------9-------|
E|---------------------------------|---------------------------------------|

e|-----------------------|
B|-----------------------|
G|-----------------------|
D|--9--7---9-----9---9---|
A|--9--7---9-----9---9---|
E|---------7-----7---7---|

Guitar II (Overdriven Guitar

Intro

  (Drums and Guitar I)
e|----------------|----------------|----------------|----------------|
B|----------------|----------------|----------------|----------------|
G|----------------|----------------|----------------|----------------|
D|----------------|----------------|----------------|----------------|
A|----------------|----------------|----------------|----------------|
E|----------------|----------------|----------------|----------------|

e|----------------|----------------|----------------|----------------|
B|----------------|----------------|----------------|----------------|
G|----------------|----------------|----------------|----------------|
D|----------------|----------------|----------------|----------------|
A|----------------|----------------|----------------|----------------|
E|----------------|----------------|----------------|----------------|

e|----------------|----------------|----------------|------------------|
B|----------------|----------------|----------------|------------------|
G|----------------|----------------|----------------|--2----2----2-----|
D|----------------|----------------|----------------|--2----2----2-----|
A|----------------|----------------|----------------|--0----0----0---5/|
E|----------------|----------------|----------------|----------------5/|

e|-----------------------|--------------|----------------------------|
B|-----------------------|--------------|----------------------------|
G|--------------7--------|--------7-----|--------------7--7----------|
D|-----9--7--9--7--9-----|-----7--7--9--|--------7--9--7--7--9p7-----|
A|-7---9--7--9-----9--7--|--9--7-----9--|--7--9--7--9--------9p7--9--|
E|-7------------------7--|--9-----------|--7--9-------------------9--|

e|-------------|----------------------------|------------------|
B|-------------|----------------------------|------------------|
G|-------------|--------------7--9--9br--7--|--9--7---------7--|
D|--7--7--7----|-----9--7--9--7--9--9br--7--|--9--7--9p7h9--7--|
A|--7--7--7--5/|--7--9--7--9----------------|--------9p7h9-----|
E|-----------5/|--7-------------------------|------------------|

e|-------------------------|-------------|---------------------|
B|-------------------------|-------------|---------------------|
G|-----------7--7----------|-------------|------------7--------|
D|-----7--9--7--7--9p7-----|--7--7--7----|---9--7--9--7--9-----|
A|--9--7--9--------9p7--9--|--7--7--7--5/|7--9--7--9-----9--7--|
E|--9-------------------9--|-----------5/|7-----------------7--|

e|--------------|----------------------------|-------------|
B|--------------|----------------------------|-------------|
G|--------7-----|--------------7--7----------|-------------|
D|-----7--7--9--|--------7--9--7--7--9p7-----|--7--7--7----|
A|--9--7-----9--|--7--9--7--9--------9p7--9--|--7--7--7--5/|
E|--9-----------|--7--9-------------------9--|-----------5/|

e|----------------------------|------------------|-------------------------|
B|----------------------------|------------------|-------------------------|
G|--------------7--9--9br--7--|--9--7---------7--|-----------7--7----------|
D|-----9--7--9--7--9--9br--7--|--9--7--9p7h9--7--|-----7--9--7--7--9p7-----|
A|--7--9--7--9----------------|--------9p7h9-----|--9--7--9--------9p7--9--|
E|--7-------------------------|------------------|--9-------------------9--|

1st Verse

e|-----------------|--------------|-----------------|-----------------|
B|-----------------|--------------|-----------------|-----------------|
G|--2---2---2---2--|--4-----2--4--|--2--------2--2--|--4---4---4---4--|
D|--2---2---2---2--|--4-----2--4--|--2--------2--2--|--4---4---4---4--|
A|--0---0---0---0--|--2-----0--2--|--0--------0--0--|--2---2---2---2--|
E|-----------------|--------------|-----------------|-----------------|

e|---------------------|----------------|-----------------|-----------------|
B|---------------------|----------------|----------3---3--|-----------------|
G|-----------4---2--2--|--4----------4--|--2-------2---2--|--4---4---4---4--|
D|-----------4---2--2--|--4----------4--|--2-------0---0--|--4---4---4---4--|
A|-----------2---0--0--|--2----------2--|--0--------------|--2---2---2---2--|
E|--3--2--0------------|----------------|-----------------|-----------------|

e|----------------------|----------------|----------------|-----------------|
B|----------------------|----------------|----------------|-----------------|
G|-----------4----2--2--|--4----------4--|--2------2--2---|--4---4---4---4--|
D|-----------4----2--2--|--4----------4--|--2------2--2---|--4---4---4---4--|
A|-----------2----0--0--|--2-------0--2--|--0------0--0---|--2---2---2---2--|
E|--3--2--0-------------|----------------|----------------|-----------------|

e|---------------------|---------------|------------------|-----------------|
B|---------------------|---------------|-----------3--3---|-----------------|
G|-----------4---2--2--|--4---------4--|--2--------2--2---|--4---4---4---4--|
D|-----------4---2--2--|--4---------4--|--2--------0--0---|--4---4---4---4--|
A|-----------2---0--0--|--2------0--2--|--0---------------|--2---2---2---2--|
E|--3--2--0------------|---------------|------------------|-----------------|

e|-----------------|
B|-----------------|
G|-----------4-----|
D|-----------4-----|
A|-----------2-----|
E|--3--2--0--------|

1st Chorus

e|---------------------|--3--------------|-----------|-----------------------|
B|---------------------|--3--------------|-----------|--3---3----------------|
G|---------------------|--0-------2---4--|-----5-----|--2---2--4p2-----2--4--|
D|--2-----------2------|--0-------2---4--|-----5-----|---------4p2--4--2--4--|
A|--2------------------|--2-------0---2--|-----3-----|--------------4--------|
E|--0------1/3-----3---|--3--------------|-----------|-----------------------|

e|-------------------|--3--------------|-----------------------|
B|-------------------|--3--------------|-----------------------|
G|-------------------|--0-------2---4--|--5--5--5--5--5--5-----|
D|--2---------2------|--0-------2---4--|--5--5--5--5--5--5-----|
A|--2----------------|--2-------0---2--|--3--3--3--3--3--3---5/|
E|--0------3-----3---|--3--------------|---------------------5/|

Intro Reprise

e|----------------------|--------------|----------------------------|
B|----------------------|--------------|----------------------------|
G|-------------7--------|--------7-----|--------------7--7----------|
D|----9--7--9--7--9-----|-----7--7--9--|--------7--9--7--7--9p7-----|
A|-7--9--7--9-----9--7--|--9--7-----9--|--7--9--7--9--------9p7--9--|
E|-7-----------------7--|--9-----------|--7--9-------------------9--|

e|-------------|---------------------|--------------|
B|-------------|---------------------|--------------|
G|-------------|------------7--------|--------7-----|
D|--7--7--7----|---9--7--9--7--9-----|-----7--7--9--|
A|--7--7--7--5/|7--9--7--9-----9--7--|--9--7-----9--|
E|-----------5/|7-----------------7--|--9-----------|

e|----------------------------|-------------|----------------------------|
B|----------------------------|-------------|----------------------------|
G|--------------7--7----------|-------------|--------------7--9--9br--7--|
D|--------7--9--7--7--9p7-----|--7--7--7----|-----9--7--9--7--9--9br--7--|
A|--7--9--7--9--------9p7--9--|--7--7--7--5/|--7--9--7--9----------------|
E|--7--9-------------------9--|-----------5/|--7-------------------------|

e|------------------|----------------------------|
B|------------------|----------------------------|
G|--9--7---------7--|--------------7--7----------|
D|--9--7--9p7h9--7--|--------7--9--7--7--9p7-----|
A|--------9p7h9-----|--7--9--7--9--------9p7--9--|
E|------------------|--7--9-------------------9--|

2nd Verse

e|-----------------|--------------|----------------|-----------------|
B|-----------------|--------------|----------------|-----------------|
G|--2---2---2---2--|--4-----2--4--|--2----------2--|--4---4---4---4--|
D|--2---2---2---2--|--4-----2--4--|--2----------2--|--4---4---4---4--|
A|--0---0---0---0--|--2-----0--2--|--0----------0--|--2---2---2---2--|
E|-----------------|--------------|----------------|-----------------|

e|--------------------|----------------|-----------------|-----------------|
B|--------------------|----------------|----------3------|-----------------|
G|-----------4-----2--|--4----------4--|--2-------2---2--|--4---4---4---4--|
D|-----------4-----2--|--4----------4--|--2-------0---2--|--4---4---4---4--|
A|-----------2-----0--|--2----------2--|--0-----------0--|--2---2---2---2--|
E|--3--2--0-----------|----------------|-----------------|-----------------|

e|---------------------|-----------------|---------------|-----------------|
B|---------------------|-----------------|---------3-----|-----------------|
G|-----------4------2--|--4-------2---4--|--2------2--2--|--4---4---4---4--|
D|-----------4------2--|--4-------2---4--|--2------0--2--|--4---4---4---4--|
A|-----------2------0--|--2-------0---2--|--0---------0--|--2---2---2---2--|
E|--3--2--0------------|-----------------|---------------|-----------------|

e|--------------------|----------------|------------------|-----------------|
B|--------------------|----------------|-----------3------|-----------------|
G|-----------4-----2--|--4------2---4--|--2--------2--2---|--4---4---4---4--|
D|-----------4-----2--|--4------2---4--|--2--------0--2---|--4---4---4---4--|
A|-----------2-----0--|--2------0---2--|--0-----------0---|--2---2---2---2--|
E|--3--2--0-----------|----------------|------------------|-----------------|

e|-----------------|
B|-----------------|
G|-----------4-----|
D|-----------4-----|
A|-----------2-----|
E|--3--2--0--------|

2nd Chorus

e|---------------------|--3--------------|-----------|-----------------------|
B|---------------------|--3--------------|-----------|--3---3----------------|
G|---------------------|--0-------2---4--|-----5-----|--2---2--4p2-----2--4--|
D|--2-----------2------|--0-------2---4--|-----5-----|---------4p2--4--2--4--|
A|--2------------------|--2-------0---2--|-----3-----|--------------4--------|
E|--0------1/3-----3---|--3--------------|-----------|-----------------------|

e|-------------------|--3--------------|-----------------------|
B|-------------------|--3--------------|-----------------------|
G|-------------------|--0-------2---4--|--5--5--5--5--5--5-----|
D|--2---------2------|--0-------2---4--|--5--5--5--5--5--5-----|
A|--2----------------|--2-------0---2--|--3--3--3--3--3--3---5/|
E|--0------3-----3---|--3--------------|---------------------5/|

2nd Intro Reprise

e|----------------------|--------------|----------------------------|
B|----------------------|--------------|----------------------------|
G|-------------7--------|--------7-----|--------------7--7----------|
D|----9--7--9--7--9-----|-----7--7--9--|--------7--9--7--7--9p7-----|
A|-7--9--7--9-----9--7--|--9--7-----9--|--7--9--7--9--------9p7--9--|
E|-7-----------------7--|--9-----------|--7--9-------------------9--|

e|-------------|---------------------|--------------|
B|-------------|---------------------|--------------|
G|-------------|------------7--------|--------7-----|
D|--7--7--7----|---9--7--9--7--9-----|-----7--7--9--|
A|--7--7--7--5/|7--9--7--9-----9--7--|--9--7-----9--|
E|-----------5/|7-----------------7--|--9-----------|

e|----------------------------|-------------|----------------------------|
B|----------------------------|-------------|----------------------------|
G|--------------7--7----------|-------------|--------------7--9--9br--7--|
D|--------7--9--7--7--9p7-----|--7--7--7----|-----9--7--9--7--9--9br--7--|
A|--7--9--7--9--------9p7--9--|--7--7--7--5/|--7--9--7--9----------------|
E|--7--9-------------------9--|-----------5/|--7-------------------------|

e|------------------|----------------------------|-------------|
B|------------------|----------------------------|-------------|
G|--9--7---------7--|--------------7--7----------|-------------|
D|--9--7--9p7h9--7--|--------7--9--7--7--9p7-----|--7--7--7----|
A|--------9p7h9-----|--7--9--7--9--------9p7--9--|--7--7--7--5/|
E|------------------|--7--9-------------------9--|-----------5/|

e|----------------------|--------------|----------------------------|--------|
B|----------------------|--------------|----------------------------|--------|
G|-------------7--------|--------7-----|--------------7--7----------|----2---|
D|----9--7--9--7--9-----|-----7--7--9--|--------7--9--7--7--9p7-----|----2---|
A|-7--9--7--9-----9--7--|--9--7-----9--|--7--9--7--9--------9p7--9--|----0---|
E|-7-----------------7--|--9-----------|--7--9-------------------9--|--------|

Main Solo

e|----------------|-----------------|--------------------|-------------------|
B|----------------|-----------------|--------------------|-------------------|
G|--4----------4--|--2----------2---|--4----4----4----4--|------------4------|
D|--4----------4--|--2----------2---|--4----4----4----4--|------------4------|
A|--2----------2--|--0----------0---|--2----2----2----2--|------------2------|
E|----------------|-----------------|--------------------|--3--2--0------3b--|

e|------------------------------------|------------------------------|
B|--17b--17--17b--17b--17b--17br--15--|--17--17--17--15--17--17--15--|
G|------------------------------------|------------------------------|
D|------------------------------------|------------------------------|
A|------------------------------------|------------------------------|
E|------------------------------------|------------------------------|

e|------------------------------------------|---------------------------|
B|--14h15p14------14------------------------|---------------------------|
G|------------16------16b--16pb--16pbr--14--|--16p14------14--16\----/--|
D|------------------------------------------|---------16---------\--/---|
A|------------------------------------------|---------------------\/----|
E|------------------------------------------|---------------------------|

e|----------------|-----------------|--------------------|-------------------|
B|----------------|-----------------|--------------------|-------------------|
G|--4----------4--|--2----------2---|--4----4----4----4--|------------4------|
D|--4----------4--|--2----------2---|--4----4----4----4--|------------4------|
A|--2----------2--|--0----------0---|--2----2----2----2--|------------2------|
E|----------------|-----------------|--------------------|--3--2--0------3b--|

e|--------------------------------------|------------------------------------|
B|--------10--12~~~--12--10--12~~~--10--|--12p10------10--12fb+h--12fb+h--10-|
G|--9/11--------------------------------|---------11-------------------------|
D|--------------------------------------|------------------------------------|
A|--------------------------------------|------------------------------------|
E|--------------------------------------|------------------------------------|

e|--------------------------------------|------------------|
B|--12p10------12--10-------------------|------------------|
G|---------11----------11\9--7--9p7-----|--9b--9br--7------|
D|-----------------------------------9--|--------------9---|
A|--------------------------------------|------------------|
E|--------------------------------------|------------------|

e|----------------------|----------------------|--------------------------|
B|--17b--17b--17br--15--|--17--17--17--15--17--|--------------------------|
G|----------------------|----------------------|--------------------------|
D|----------------------|----------------------|--9--9--9--9--9--9--9--9--|
A|----------------------|----------------------|--9--9--9--9--9--9--9--9--|
E|----------------------|----------------------|--7--7--7--7--7--7--7--7--|

Bridge

e|------------------------------------|------------------------------------|
B|------------------------------------|------------------------------------|
G|--9--9--9p7-----9--9--7--9p7-----7--|--9--9--9p7-----9--9--7--9p7-----7--|
D|--9--9--9p7--9--9--9--7--9p7--9--7--|--9--9--9p7--9--9--9--7--9p7--9--7--|
A|-------------9----------------9-----|-------------9----------------9-----|
E|------------------------------------|------------------------------------|

e|---------------------------------|---------------------------------------|
B|---------------------------------|---------------------------------------|
G|--9--9--9p7-----9--9--7--9p7-----|--9p7-----9p7-----9p7-----9p7-----9p7--|
D|--9--9--9p7--9--9--9--7--9p7--9--|--9p7--9--9p7--9--9p7--9--9p7--9--9p7--|
A|-------------9----------------9--|-------9-------9-------9-------9-------|
E|---------------------------------|---------------------------------------|

      
                 (Drum Break)           
e|--------------|-------------------|-------------------|-------------------|
B|--------------|-------------------|-------------------|-------------------|
G|--------------|-------------------|-------------------|-------------------|
D|--9--7--9-----|-------------------|-------------------|-------------------|
A|--9--7--9-----|-------------------|-------------------|-------------------|
E|--------------|-------------------|-------------------|-------------------|

3rd Verse

e|---------------|-------------------|-----------------|---------------------|
B|---------------|----------------3--|-----------------|---------------------|
G|--4------2--4--|--2----------2--2--|--4---4---4---4--|-----------4------2--|
D|--4------2--4--|--2----------2--0--|--4---4---4---4--|-----------4------2--|
A|--2------0--2--|--0----------0-----|--2---2---2---2--|-----------2------0--|
E|---------------|-------------------|-----------------|--3--2--0-----3b-----|

e|---------------|------------------|-----------------|---------------------|
B|---------------|------------------|-----------------|---------------------|
G|--4------2--4--|--2----------2----|--4---4---4---4--|-----------4------2--|
D|--4------2--4--|--2----------2----|--4---4---4---4--|-----------4------2--|
A|--2------0--2--|--0----------0----|--2---2---2---2--|-----------2------0--|
E|---------------|------------------|-----------------|--3--2--0-----3b-----|

e|---------------|-------------------|-----------------|---------------------|
B|---------------|-------------------|-----------------|---------------------|
G|--4------2--4--|--2---------2---2--|--4---4---4---4--|-----------4------2--|
D|--4------2--4--|--2---------2---2--|--4---4---4---4--|-----------4------2--|
A|--2------0--2--|--0---------0---0--|--2---2---2---2--|-----------2------0--|
E|---------------|-------------------|-----------------|--3--2--0-----3b-----|

e|---------------|------------------|-----------------|-------------------|
B|---------------|------------------|-----------------|-------------------|
G|--4------2--4--|--2----------2----|--4---4---4---4--|-----------4-------|
D|--4------2--4--|--2----------2----|--4---4---4---4--|-----------4-------|
A|--2------0--2--|--0----------0----|--2---2---2---2--|-----------2-------|
E|---------------|------------------|-----------------|--3--2--0----------|

3rd Chorus

e|---------------------|--3--------------|-----------|-----------------------|
B|---------------------|--3--------------|-----------|-----------------------|
G|---------------------|--0-------2---4--|-----5-----|--7---7----------------|
D|--2-----------2------|--0-------2---4--|-----5-----|--7---7--9p7-----7--9--|
A|--2------------------|--2-------0---2--|-----3-----|---------9p7--9--7--9--|
E|--0------1h3-----3---|--3--------------|-----------|--------------9--------|

e|-------------------|--3--------------|-----------------------|
B|-------------------|--3--------------|-----------------------|
G|-------------------|--0-------2---4--|--5--5--5--5--5--5-----|
D|--2---------2------|--0-------2---4--|--5--5--5--5--5--5-----|
A|--2----------------|--2-------0---2--|--3--3--3--3--3--3---5/|
E|--0------3-----3---|--3--------------|---------------------5/|

3rd Reprise and Outro solo

e|----------------------|--------------|----------------------------|
B|----------------------|--------------|----------------------------|
G|-------------7--------|--------7-----|--------------7--7----------|
D|----9--7--9--7--9-----|-----7--7--9--|--------7--9--7--7--9p7-----|
A|-7--9--7--9-----9--7--|--9--7-----9--|--7--9--7--9--------9p7--9--|
E|-7-----------------7--|--9-----------|--7--9-------------------9--|

e|-------------|---------------------|--------------|
B|-------------|---------------------|--------------|
G|-------------|------------7--------|--------7-----|
D|--7--7--7----|---9--7--9--7--9-----|-----7--7--9--|
A|--7--7--7--5/|7--9--7--9-----9--7--|--9--7-----9--|
E|-----------5/|7-----------------7--|--9-----------|

e|----------------------------|-------------|---------------------|
B|----------------------------|-------------|---------------------|
G|--------------7--7----------|-------------|------------7--------|
D|--------7--9--7--7--9p7-----|--7--7--7----|---9--7--9--7--9-----|
A|--7--9--7--9--------9p7--9--|--7--7--7--5/|7--9--7--9-----9--7--|
E|--7--9-------------------9--|-----------5/|7-----------------7--|

e|--------------|----------------------------|-------------|
B|--------------|----------------------------|-------------|
G|--------7-----|--------------7--7----------|-------------|
D|-----7--7--9--|--------7--9--7--7--9p7-----|--7--7--7----|
A|--9--7-----9--|--7--9--7--9--------9p7--9--|--7--7--7--5/|
E|--9-----------|--7--9-------------------9--|-----------5/|

e|----------------------------|------------------|-------------------------|
B|----------------------------|------------------|-------------------------|
G|--------------7--9--9br--7--|--9--7---------7--|-----------7--7----------|
D|-----9--7--9--7--9--9br--7--|--9--7--9p7h9--7--|-----7--9--7--7--9p7-----|
A|--7--9--7--9----------------|--------9p7h9-----|--9--7--9--------9p7--9--|
E|--7-------------------------|------------------|--9-------------------9--|

Outro

e|----------|-----------------|-----------------|-----------------|
B|----------|-----------------|-----------------|-----------------|
G|--2-------|-----------------|-----------------|-----------------|
D|--2-------|-----------------|-----------------|-----------------|
A|--0-------|-----------------|-----------------|-----------------|
E|----------|-----------------|-----------------|-----------------|

e|------------------------------------|------------------------------------|
B|------------------------------------|------------------------------------|
G|--9--9--9p7-----9--9--7--9p7-----7--|--9--9--9p7-----9--9--7--9p7-----7--|
D|--9--9--9p7--9--9--9--7--9p7--9--7--|--9--9--9p7--9--9--9--7--9p7--9--7--|
A|-------------9----------------9-----|-------------9----------------9-----|
E|------------------------------------|------------------------------------|

e|---------------------------------|---------------------------------------|
B|---------------------------------|---------------------------------------|
G|--9--9--9p7-----9--9--7--9p7-----|--9p7-----9p7-----9p7-----9p7-----9p7--|
D|--9--9--9p7--9--9--9--7--9p7--9--|--9p7--9--9p7--9--9p7--9--9p7--9--9p7--|
A|-------------9----------------9--|-------9-------9-------9-------9-------|
E|---------------------------------|---------------------------------------|

e|-----------------------|
B|-----------------------|
G|-----------------------|
D|--9--7---9-----9---9---|
A|--9--7---9-----9---9---|
E|---------7-----7---7---|

************************************

| /   slide up
| \   slide down
| h   hammer-on
| p   pull-off
| ~   vibrato
| +   harmonic
| x   Mute note
| b   Bend
| pb  Pre-bend
| br  Bend release
| pbr Pre-bend release
| brb Bend release bend
| fb+h one and a half bend
************************************
Tap to rate this tab
 
# A B C D E F G H I J K L M N O P Q R S T U V W X Y Z