Guitaretab - guitar tabs
Song name
# A B C D E F G H I J K L M N O P Q R S T U V W X Y Z

Blackfoot - Every Man Should Know Queenie tab

Every Man Should Know (Queenie)
by: BLACKFOOT
                                               
Verse Rhythm 1	 
|--------------------------------|------------------------------------------|
|--------------------------------|------------------------------------------|
|--------------------------------|------------------------------------------|
|-2-----------2-2-2-2------2-----|-2-----------2-2-2-2------2---------------|
|-0---2-2--2--0-0-0-0----2-0-----|-0---2-2--2--0-0-0-0----2-0---------------|
|---3-0-0--0----------3~-0-------|---3-0-0--0----------3~-0-----------------|

Chorus Rhythm (part1)                 Chorus Rhythm (part2)
|-2--2--------2-3p2-----------------|----------2-2---2-3p2------------------|
|-2--2--------3----3-------2--------|----------2-2---3----3---2-------------|
|-2--2--------2------2-----2-----1--|----------2-2---2-----2--2-----1-------|
|-4--4--------0------------2-----2--|------2h4-4-4---0--------2-----2-------|
|-4--4---------------------0-----2--|---2h4----4-4------------0-----2-------|
|-2--2---------------------------0--|----------2-2------------------0-------|

1st Little Lead
|---------------------------------------------------------------------------|
|-------------------------------------------------15--------15--------------|
|------------------------------14p12-14b-14bp12-14ó14bp12-14---14bp12-------|
|-7b9--9-9-9-9-9-9-5h7p5---------------------------------------------14-----|
|-----------------------7---------------------------------------------------|
|----------------------------------------------------------------------\\12-|
      (pinch harm.)

B							  F#    A      (Rhythm Riff 1)
Well,     Donít mess with my Queenie,              Lord,  mess with your nose
  You can stand there dreaminí             but donít you dare step on my toes

(Chorus Rhythm part 1) 
Cause,  Every man should know, you take what you owe. 

(chorus Rhythm part 2)
To own a body you gotta own a soul

Hold (E)
So every man should know 

2nd Little Lead
|--------------------------------------------------------------------------|
|--5p3-5/7ó7p5-7/9-9p7-9/11~~~(let-ring)-----------------------------------|
|--------------------------------------------------------------------------|
|--------------------------------------------------------------------------|
|--------------------------------------------------------------------------|
|--------------------------------------------------------------------------|

1st Little Lead again with some variation
[ Tab from: http://www.guitaretab.com/b/blackfoot/66429.html ]
	 B                      F#m      A                   (Rhythm Riff 1)
YES!!!,  you might take my money        but I wont take second place
Ooh,     you mess with my honey,        Iíll mess with your face









(Chorus Rhythm part 1) 
Cause,  Every man should know, you take what you owe-oo-woa-oh. 

(chorus Rhythm part 2)
To own a body you gotta own a soul

		(Theres a solo here, havent figured it out, will soon though)
So Every man should know

Ha Ha Ha Ha 

Rhythm Break 1						
|--------------------------------|------------------------------------------|
|--------------------------------|------------------------------------------|
|--------------------------------|--------------Lead-Guitar-----------------|
|-2---------x-x-x-x--2-----2-----|-2-------{-------------------}--2----2----|
|-0---2-----x-x-x-x--0---2-0-----|-0---2---{--2-2-2-2----------}--0--2-0----|
|---3-0-----x-x-x-x----3-0---3---|---3-0---{--0-0-0-0----------}---3-0--3---|
							    (VOLUME BOOST)

|------------------------------------||------------------------------------|   
|------------------------------------||------------------------------------|
|--------------Lead-Guitar-----------||--------------Lead-Guitar-----------|
|-2-------{-------------}--2----2----||-2-------{-------------}--2----2----|
|-2---2---{--2-2-2-2----}--2--2-2----||-2---2---{--2-2-2-2----}--2--2-2----|
|-0---2---{--2-2-2-2----}--0--2-0----||-0---2---{--2-2-2-2----}--0--2-0----|
|---3-0---{--0-0-0-0----}---3-0--3---||---3-0---{--0-0-0-0----}---3-0--3---|
            (VOLUME BOOST)                       (VOLUME BOOST)

 
Rhythm Break 2
|--------------------------------|------------------------------------------|
|--------------------------------|------------------------------------------|
|---------------------------3-4--|---------------------------3-4------------|
|-2-----------2-2-2-2-------1-2--|-2-----------2-2-2-2-------1-2------------|
|-0---2-2--2--0-0-0-0----2-------|-0---2-2--2--0-0-0-0----2-----------------|
|---3-0-0--0----------3~-0-------|---3-0-0--0----------3~-0----------\\12---|



B							  F#    A      (Rhythm Riff 1)
Well,     Donít mess with my Queenie,              Lord,  mess with your nose
  You can stand there dreaminí             but donít you dare step on my toes

(Chorus Rhythm part 1) 
Cause,  Every man should know, you take what you owe. 

(chorus Rhythm part 2)
To own a body you gotta own a soul

Hold (E)
So every man should know 
  


THE END

jonathan   simpleman89@carolina.rr.com

Related for Every Man Should Know Queenie tab