Song name
# A B C D E F G H I J K L M N O P Q R S T U V W X Y Z

Blackhawk - Sure Can Smell The Rain tab

Song Title: Sure Can Smell the Rain
Artist: Blackhawk
Tabbed by:  Shaun Geisert
Bass guitar rests for 
10 measures at beginning.
Chorus 1          	     Verse 2                                                      

2                                                      
G|--|------------------------------------------|
D|--|------------------------------------------|
A|--|-----0-00------------5-55-2--02-----------|
E|7\|0-00------0-00--0-00--------2---0-00--0-00|
Bridge 1                                                      
3                                                
G|-------------------------------------------------------------------|
D|-------------------------------------------------------------------|
A|-----0-00------------5-55-2-22--------------0-25--5-4-2---2--------|
E|0-00------0-00--0-00-----------0-00--0-00--4-----5-----------0----0|
Outro                                                
G|-------------------------------------------------------------------|
D|-2-----------------------------------------------------------------|
A|--0/2--------------------------------------------------------------|
E|------0-00--0-00--0-00--0-00--7\0-00--0-00--0-00--0-00--0-00--0-00-|
Tap to rate this tab
# A B C D E F G H I J K L M N O P Q R S T U V W X Y Z