Song name
# A B C D E F G H I J K L M N O P Q R S T U V W X Y Z

Blacklist Union - After The Mourning tab

Help us improve GuitareTab! Take a short survey!
Tuning:Standard
Blacklist Union                 Album:After the Mourning
After the Mourning           Transcribed By: Jonathan A. Hosseini


---------------------------------|
---------------------------------|
-------------------6-------------|
-44-4-4-4-4-4/6---6-------------|
-44-4-4-4-4-4/6-----------------|
-22-2-2-2-2-2/4-----------------|

----------------------------------|
----------------------------------|
---------------------6------------|
-44-4-4-4-4-4/6\4---6------------|
-44-4-4-4-4-4/6\4---4------------|
-22-2-2-2-2-2/4\2----------------|
Related for After The Mourning tab