Song name
# A B C D E F G H I J K L M N O P Q R S T U V W X Y Z

Blacklist Union - Please Kill Me tab

Tuning: Standard                       Tabbed By: Jonathan Alihosseini

 Intro

--------------------------|
--------------------------|
--------------------------|
--------------------------|   x6
---22-5-2-8-2--2-5-2-8--8-|
---00-3-0-6-0--0-3-0-6--6-|


          verse
-------------------------|
-------------------------|
-------------------------| and yes those are 1's
-------------------------|
--11-5-1-7--11-5-1-7--7--|
-------------------------|
         ^         ^    ^

                 Pre-Chorus

                           let ring========
--------------------------------------------4/2-3/1-|
-----------------------------------------3----------|
--7-7-7-7-7-7-7-7-7-7-7-7-7-7-7-7------4------------|
--7-7-7-7-7-7-7-7-7-7-7-7-7-7-7-7----5--------------|
--5-5-5-5-5-5-5-5-5-5-5-5-5-5-5-5--5----------------|
----------------------------------------------------|

Beginning of Chorus

-------------------------------------------|
-------------------------------------------|
--9-9-9-9-9-9-9-9-9-9-9-9-9-9-9-9----------|
--x-x-x-x-x-x-x-x-x-x-x-x-x-x-x-x----------|
--7-7-7-7-7-7-7-7-7-7-7-7-7-7-7-7----------|
-------------------------------------------|

--------------------------------------------------|
--------------------------------------------------|
--12-12-12-12-12-12-12-12-12-12-12-12-12-12-12-12-|
--x--x--x--x--x--x--x--x--x--x--x--x--x--x--x--x--|
--10-10-10-10-10-10-10-10-10-10-10-10-10-10-10-10-|
--------------------------------------------------|
Tap to rate this tab
# A B C D E F G H I J K L M N O P Q R S T U V W X Y Z