Song name
# A B C D E F G H I J K L M N O P Q R S T U V W X Y Z

Blacklist - From The Blind Spot tab

FROM THE BLIND SPOT [ORIGINAL EDIT]
-----------------------------------
Artist - BlackList(/Blindspott)
Album - TBA
Guitarist - Marcus Powell
Tab By - Jeremy Buswell (jeremy_buswell@hotmail.com)

Tuning: Standard
____________________________________________________________________________

INTRO
GUITAR 1 [DISTORTED WITH SLIGHT DELAY & REVERB]
E -----|
B -----|
G -----|
D -----|
A -6---|
E -----|
   1 + |

E -----------------|-----------------|-----------------|-----------------|
B -----------------|-----------------|-----------------|-----------------|
G -----------------|-----------------|-----------------|-----------------|
D -8---------------|-----------------|-8---------------|-----------------|
A -------6----/9---|---8---------6---|-------8----/9---|---8---------6---|
E -----------------|-----------------|-----------------|-----------------|
   1 + 2 + 3 + 4 + | 1 + 2 + 3 + 4 + | 1 + 2 + 3 + 4 + | 1 + 2 + 3 + 4 + |

                                                  "THIS IS THE WAY IT SHOULD SOUND"
E -----------------|-----------------|-----------------|-----------------|
B -----------------|-----------------|-----------------|-----------------|
G -----------------|-----------------|-----------------|-----------------|
D -8---------------|-----------------|-8-----9-----8---|-----------------|
A -------4----/9---|---8---------6---|-----------------|---9-----8---6---|
E -----------------|-----------------|-----------------|-----------------|
   1 + 2 + 3 + 4 + | 1 + 2 + 3 + 4 + | 1 + 2 + 3 + 4 + | 1 + 2 + 3 + 4 + |

DRUMS & BASS IN
GUITAR 1 [DISTORTED WITH SLIGHT DELAY & REVERB]
E -----------------|-----------------|-----------------|-----------------|
B -----------------|-----------------|-----------------|-----------------|
G -----------------|-----------------|-----------------|-----------------|
D -8---------------|-----------------|-8---------------|-----------------|
A -------6----/9---|---8---------6---|-------8----/9---|---8---------6---|
E -----------------|-----------------|-----------------|-----------------|
   1 + 2 + 3 + 4 + | 1 + 2 + 3 + 4 + | 1 + 2 + 3 + 4 + | 1 + 2 + 3 + 4 + |

GUITAR 2 [DISTORTED]
 |------------Repeat-1x------------|------------Repeat-1x------------|
E ---------------------------------|---------------------------------|
B ---------------------------------|---------------------------------|
G -10----10--1010----10--1010--1010|---------------------------------|
D -8-----8---8-8-----8---8-8---8-8-|-11----11--1111----11--1111--1111|
A -6-----6---6-6-----6---6-6---6-6-|-9-----9---9-9-----9---9-9---9-9-|
E -6-----6---6-6-----6---6-6---6-6-|-7-----7---7-7-----7---7-7---7-7-|
   1 e + a 2 e + a 3 e + a 4 e + a | 1 e + a 2 e + a 3 e + a 4 e + a |

E -----------------|-----------------|-----------------|-----------------|
B -----------------|-----------------|-----------------|-----------------|
G -----------------|-----------------|-----------------|-----------------|
D -8---------------|-----------------|-8-----9---------|--11-----119-8---|
A -------4----/9---|---8---------6---|-------------9---|-----------------|
E -----------------|-----------------|-----------------|-----------------|
   1 + 2 + 3 + 4 + | 1 + 2 + 3 + 4 + | 1 + 2 + 3 + 4 + | 1 + 2 + 3 + 4 + |

 |------------Repeat-1x--------------------------------|
E ---------------------------------|-------------------|
B ---------------------------------|-------------------|
G ---------------------------------|-------------------|
D -13----13--1313----13--1313--1313|-11----11--1111----|
A -11----11--1111----11--1111--1111|-9-----9---9-9-----|
E -9-----9---9-9-----9---9-9---9-9-|-7-----7---7-7-----|

----------------|-----------------------------------|
----------------|-----------------------------------|
----------------|-----------------------------------|
--11--1111--1111|-13----13--1313----13--1313--1313--|
--9---9-9---9-9-|-11----11--1111----11--1111--1111--|
--7---7-7---7-7-|-9-----9---9-9-----9---9-9---9-9---|

   1 e + a 2 e + a 3 e + a 4 e + a | 1 e + a 2 e + a 3 e + a 4 e + a
| 1 e + a 2 e + a 3 e + a 4 e + a |

FIRST VERSE
GUITAR 1 [DISTORTED]
E ---------------------------------|---------------------------------|
B ---------------------------------|---------------------------------|
G -------------151515151515--------|---------------------------------|
D -131313131313------------15151515|-15151616161616161616161616161616|
A ---------------------------------|---------------------------------|
E ---------------------------------|---------------------------------|
   1 e + a 2 e + a 3 e + a 4 e + a | 1 e + a 2 e + a 3 e + a 4 e + a |

E ---------------------------------|---------------------------------|
B ---------------------------------|---------------------------------|
G -------------151515151515--------|---------------------------------|
D -131313131313------------16161616|-16161515151515151515151515151515|
A ---------------------------------|---------------------------------|
E ---------------------------------|---------------------------------|
   1 e + a 2 e + a 3 e + a 4 e + a | 1 e + a 2 e + a 3 e + a 4 e + a |

E ---------------------------------|---------------------------------|
B ---------------------------------|---------------------------------|
G -------------151515151515--------|---------------------------------|
D -131313131313------------16161616|-16161818181818181818181818181818|
A ---------------------------------|---------------------------------|
E ---------------------------------|---------------------------------|
   1 e + a 2 e + a 3 e + a 4 e + a | 1 e + a 2 e + a 3 e + a 4 e + a |

E ---------------------------------|---------------------------------|
B ---------------------------------|---------------------------------|
G -------------15151515151516161616|-16161515151515151515151515151315|
D -131313131313--------------------|---------------------------------|
A ---------------------------------|---------------------------------|
E ---------------------------------|---------------------------------|
   1 e + a 2 e + a 3 e + a 4 e + a | 1 e + a 2 e + a 3 e + a 4 e + a |

GUITAR 1 [DISTORTED WITH SLIGHT DELAY & REVERB]
 |-----------------------------Repeat-1x-----------------------------|
E ---------------------------------|---------------------------------|
B ---------------------------------|---------------------------------|
G -15151315--1315151315--1315151315|-13131113--1113131113--1113131113|
D ---------------------------------|---------------------------------|
A ---------------------------------|---------------------------------|
E ---------------------------------|---------------------------------|
   1 e + a 2 e + a 3 e + a 4 e + a | 1 e + a 2 e + a 3 e + a 4 e + a |

GUITAR 2 [DISTORTED]
 |-----------------------------Repeat-1x-----------------------------|
E ---------------------------------|---------------------------------|
B ---------------------------------|---------------------------------|
G -8-----8-----8-----8-------------|---------------------------------|
D -8-----8-----8-----8-------------|---------------------------------|
A -6-----6-----6-----6-------------|---------------------------------|
E -6-----6-----6-----6-------------|---------------------------------|
   1 e + a 2 e + a 3 e + a 4 e + a | 1 e + a 2 e + a 3 e + a 4 e + a |

E ---------------------------------|---------------------------------|
B ---------------------------------|---------------------------------|
G -15151315--1315151315--1315151315|-16161316--1316161316--1316161316|
D ---------------------------------|---------------------------------|
A ---------------------------------|---------------------------------|
E ---------------------------------|---------------------------------|
   1 e + a 2 e + a 3 e + a 4 e + a | 1 e + a 2 e + a 3 e + a 4 e + a |

E ---------------------------------|---------------------------------|
B ---------------------------------|---------------------------------|
G -4-----4-----4-----4-------------|---------------------------------|
D -4-----4-----4-----4-------------|---------------------------------|
A -2-----2-----2-----2-------------|---------------------------------|
E -2-----2-----2-----2-------------|---------------------------------|
   1 e + a 2 e + a 3 e + a 4 e + a | 1 e + a 2 e + a 3 e + a 4 e + a |

E ---------------------------------|---------------------------------|
B ---------------------------------|-------------14141414141414------| Gradually bend
G -15151315--1315151315--1315151315|-16161316--1313131313131313------| 13s up into CHORUS
D ---------------------------------|---------------------------------|
A ---------------------------------|---------------------------------|
E ---------------------------------|---------------------------------|
   1 e + a 2 e + a 3 e + a 4 e + a | 1 e + a 2 e + a 3 e + a 4 e + a |

E ---------------------------------|---------------------------------|
B ---------------------------------|---------------------------------|
G -6-----6-----6-----6-------------|---------------------------------|
D -6-----6-----6-----6-------------|---------------------------------|
A -4-----4-----4-----4-------------|---------------------------------|
E -4-----4-----4-----4-------------|---------------------------------|
   1 e + a 2 e + a 3 e + a 4 e + a | 1 e + a 2 e + a 3 e + a 4 e + a |

FIRST CHORUS
GUITAR 1 [DISTORTED]
 |------------Repeat-1x------------|------------Repeat-1x------------|
E ---------------------------------|---------------------------------|
B ---------------------------------|---------------------------------|
G -10----10--1010----10--1010--1010|---------------------------------|
D -8-----8---8-8-----8---8-8---8-8-|-11----11--1111----11--1111--1111|
A -6-----6---6-6-----6---6-6---6-6-|-9-----9---9-9-----9---9-9---9-9-|
E -6-----6---6-6-----6---6-6---6-6-|-7-----7---7-7-----7---7-7---7-7-|
   1 e + a 2 e + a 3 e + a 4 e + a | 1 e + a 2 e + a 3 e + a 4 e + a |

 |------------Repeat-1x------------------------------|                           PAUSE
E ---------------------------------|-----------------|
B ---------------------------------|-----------------|
G ---------------------------------|-----------------|
D -13----13--1313----13--1313--1313|-11----11--1111--|
A -11----11--1111----11--1111--1111|-9-----9---9-9---|
E -9-----9---9-9-----9---9-9---9-9-|-7-----7---7-7---|

----------------|-----------------------------------|
----------------|-----------------------------------|
----------------|-----------------------------------|
--11--1111--1111|-13----13--1313----13--1313--1313--|
--9---9-9---9-9-|-11----11--1111----11--1111--1111--|
--7---7-7---7-7-|-9-----9---9-9-----9---9-9---9-9---|

   1 e + a 2 e + a 3 e + a 4 e + a | 1 e + a 2 e + a 3 e + a 4 e + a
| 1 + 2 + 3 + 4 + |

SECOND VERSE
GUITAR 1 [DISTORTED]
E ---------------------------------|---------------------------------|
B ---------------------------------|---------------------------------|
G -------------151515151515--------|---------------------------------|
D -131313131313------------15151515|-15151616161616161616161616161616|
A ---------------------------------|---------------------------------|
E ---------------------------------|---------------------------------|
   1 e + a 2 e + a 3 e + a 4 e + a | 1 e + a 2 e + a 3 e + a 4 e + a |

GUITAR 2 [DISTORTED]
E ---------------------------------|---------------------------------|
B ---------------------------------|---------------------------------|
G -8-----8-----8-----8-------------|---------------------------------|
D -8-----8-----8-----8-------------|---------------------------------|
A -6-----6-----6-----6-------------|---------------------------------|
E -6-----6-----6-----6-------------|---------------------------------|
   1 e + a 2 e + a 3 e + a 4 e + a | 1 e + a 2 e + a 3 e + a 4 e + a |

E ---------------------------------|---------------------------------|
B ---------------------------------|---------------------------------|
G -------------151515151515--------|---------------------------------|
D -131313131313------------16161616|-16161515151515151515151515151515|
A ---------------------------------|---------------------------------|
E ---------------------------------|---------------------------------|
   1 e + a 2 e + a 3 e + a 4 e + a | 1 e + a 2 e + a 3 e + a 4 e + a |

E ---------------------------------|---------------------------------|
B ---------------------------------|---------------------------------|
G -8-----8-----8-----8-------------|---------------------------------|
D -8-----8-----8-----8-------------|---------------------------------|
A -6-----6-----6-----6-------------|---------------------------------|
E -6-----6-----6-----6-------------|---------------------------------|
   1 e + a 2 e + a 3 e + a 4 e + a | 1 e + a 2 e + a 3 e + a 4 e + a |

E ---------------------------------|---------------------------------|
B ---------------------------------|---------------------------------|
G -------------151515151515--------|---------------------------------|
D -131313131313------------16161616|-16161818181818181818181818181818|
A ---------------------------------|---------------------------------|
E ---------------------------------|---------------------------------|
   1 e + a 2 e + a 3 e + a 4 e + a | 1 e + a 2 e + a 3 e + a 4 e + a |

E ---------------------------------|---------------------------------|
B ---------------------------------|---------------------------------|
G -4-----4-----4-----4-------------|---------------------------------|
D -4-----4-----4-----4-------------|---------------------------------|
A -2-----2-----2-----2-------------|---------------------------------|
E -2-----2-----2-----2-------------|---------------------------------|
   1 e + a 2 e + a 3 e + a 4 e + a | 1 e + a 2 e + a 3 e + a 4 e + a |

E ---------------------------------|---------------------------------|
B ---------------------------------|---------------------------------|
G -------------15151515151516161616|-16161515151515151515131515151315|
D -131313131313--------------------|---------------------------------|
A ---------------------------------|---------------------------------|
E ---------------------------------|---------------------------------|
   1 e + a 2 e + a 3 e + a 4 e + a | 1 e + a 2 e + a 3 e + a 4 e + a |

E ---------------------------------|---------------------------------|
B ---------------------------------|---------------------------------|
G -6-----6-----6-----6-------------|---------------------------------|
D -6-----6-----6-----6-------------|---------------------------------|
A -4-----4-----4-----4-------------|---------------------------------|
E -4-----4-----4-----4-------------|---------------------------------|
   1 e + a 2 e + a 3 e + a 4 e + a | 1 e + a 2 e + a 3 e + a 4 e + a |

[DISTORTED WITH SLIGHT DELAY & REVERB]
 |-----------------------------Repeat-1x-----------------------------|
E ---------------------------------|---------------------------------|
B ---------------------------------|---------------------------------|
G -15151315--1315151315--1315151315|-13131113--1113131113--1113131113|
D ---------------------------------|---------------------------------|
A ---------------------------------|---------------------------------|
E ---------------------------------|---------------------------------|
   1 e + a 2 e + a 3 e + a 4 e + a | 1 e + a 2 e + a 3 e + a 4 e + a |

 |-----------------------------Repeat-1x-----------------------------|
E ---------------------------------|---------------------------------|
B ---------------------------------|---------------------------------|
G -8-----8-----8-----8-------------|---------------------------------|
D -8-----8-----8-----8-------------|---------------------------------|
A -6-----6-----6-----6-------------|---------------------------------|
E -6-----6-----6-----6-------------|---------------------------------|
   1 e + a 2 e + a 3 e + a 4 e + a | 1 e + a 2 e + a 3 e + a 4 e + a |

E ---------------------------------|---------------------------------|
B ---------------------------------|---------------------------------|
G -15151315--1315151315--1315151315|-16161316--1316161316--1316161316|
D ---------------------------------|---------------------------------|
A ---------------------------------|---------------------------------|
E ---------------------------------|---------------------------------|
   1 e + a 2 e + a 3 e + a 4 e + a | 1 e + a 2 e + a 3 e + a 4 e + a |

E ---------------------------------|---------------------------------|
B ---------------------------------|---------------------------------|
G -4-----4-----4-----4-------------|---------------------------------|
D -4-----4-----4-----4-------------|---------------------------------|
A -2-----2-----2-----2-------------|---------------------------------|
E -2-----2-----2-----2-------------|---------------------------------|
   1 e + a 2 e + a 3 e + a 4 e + a | 1 e + a 2 e + a 3 e + a 4 e + a |

E ---------------------------------|---------------------------------|
B ---------------------------------|-------------14141414141414------| Gradually bend
G -15151315--1315151315--1315151315|-16161316--1313131313131313------| 13s up into CHORUS
D ---------------------------------|---------------------------------|
A ---------------------------------|---------------------------------|
E ---------------------------------|---------------------------------|
   1 e + a 2 e + a 3 e + a 4 e + a | 1 e + a 2 e + a 3 e + a 4 e + a |

E ---------------------------------|---------------------------------|
B ---------------------------------|---------------------------------|
G -6-----6-----6-----6-------------|---------------------------------|
D -6-----6-----6-----6-------------|---------------------------------|
A -4-----4-----4-----4-------------|---------------------------------|
E -4-----4-----4-----4-------------|---------------------------------|
   1 e + a 2 e + a 3 e + a 4 e + a | 1 e + a 2 e + a 3 e + a 4 e + a |

SECOND CHORUS
GUITAR 1 [DISTORTED]
 |------------Repeat-1x------------|------------Repeat-1x------------|
E ---------------------------------|---------------------------------|
B ---------------------------------|---------------------------------|
G -10----10--1010----10--1010--1010|---------------------------------|
D -8-----8---8-8-----8---8-8---8-8-|-11----11--1111----11--1111--1111|
A -6-----6---6-6-----6---6-6---6-6-|-9-----9---9-9-----9---9-9---9-9-|
E -6-----6---6-6-----6---6-6---6-6-|-7-----7---7-7-----7---7-7---7-7-|
   1 e + a 2 e + a 3 e + a 4 e + a | 1 e + a 2 e + a 3 e + a 4 e + a |

 |------------Repeat-1x--------------------------------|
E ---------------------------------|-------------------|
B ---------------------------------|-------------------|
G ---------------------------------|-------------------|
D -13----13--1313----13--1313--1313|-11----11--1111----|
A -11----11--1111----11--1111--1111|-9-----9---9-9-----|
E -9-----9---9-9-----9---9-9---9-9-|-7-----7---7-7-----|

----------------|-----------------------------------|
----------------|-----------------------------------|
----------------|-----------------------------------|
--11--1111--1111|-13----13--1313----13--1313--1313--|
--9---9-9---9-9-|-11----11--1111----11--1111--1111--|
--7---7-7---7-7-|-9-----9---9-9-----9---9-9---9-9---|

   1 e + a 2 e + a 3 e + a 4 e + a | 1 e + a 2 e + a 3 e + a 4 e + a
| 1 e + a 2 e + a 3 e + a 4 e + a |

BRIDGE PART 1
GUITAR 1 [DISTORTED WITH SLIGHT DELAY & REVERB - - VOLUME BACK TO ABOUT 1/2 ]
 |------------Repeat-1x------------|------------Repeat-1x------------|
E ---------------------------------|---------------------------------|
B ---------------------------------|---------------------------------|
G -15151515151515151515151515151515|-16161616161616161616161616161616|
D -x-x-x-x-x-x-x-x-x-x-x-x-x-x-x-x-|-x-x-x-x-x-x-x-x-x-x-x-x-x-x-x-x-|
A -13131313131313131313131313131313|-14141414141414141414141414141414|
E ---------------------------------|---------------------------------|
   1 e + a 2 e + a 3 e + a 4 e + a | 1 e + a 2 e + a 3 e + a 4 e + a |

GUITAR 2 [DISTORTED]
E -----------------|-----------------|-----------------|-----------------|
B -----------------|-----------------|-----------------|-----------------|
G -10--------------|-----------------|-----------------|-----------------|
D -8---FADE--------|-----------------|-----------------|-----------------|
A -6--------OUT----|-----------------|-----------------|-----------------|
E -6---------------|-----------------|-----------------|-----------------|
   1 + 2 + 3 + 4 + | 1 + 2 + 3 + 4 + | 1 + 2 + 3 + 4 + | 1 + 2 + 3 + 4 + |

E ---------------------------------|---------------------------------|
B ---------------------------------|---------------------------------|
G -15151515151515151515151515151515|-13131313131313131313131313131313|
D -x-x-x-x-x-x-x-x-x-x-x-x-x-x-x-x-|-x-x-x-x-x-x-x-x-x-x-x-x-x-x-x-x-|
A -13131313131313131313131313131313|-11111111111111111111111111111111|
E ---------------------------------|---------------------------------|
   1 e + a 2 e + a 3 e + a 4 e + a | 1 e + a 2 e + a 3 e + a 4 e + a |

E ---------------------------------|---------------------------------|
B ---------------------------------|---------------------------------|
G -11111111111111111111111111111111|-10101010101010101010101010101010|
D -x-x-x-x-x-x-x-x-x-x-x-x-x-x-x-x-|-x-x-x-x-x-x-x-x-x-x-x-x-x-x-x-x-|
A -9-9-9-9-9-9-9-9-9-9-9-9-9-9-9-9-|-8-8-8-8-8-8-8-8-8-8-8-8-8-8-8-8-|
E ---------------------------------|---------------------------------|
   1 e + a 2 e + a 3 e + a 4 e + a | 1 e + a 2 e + a 3 e + a 4 e + a |

BRIDGE PART 2
GUITAR 1 [DISTORTED - BACK UP TO 11]
 |------------Repeat-1x------------|------------Repeat-1x------------|
E ---------------------------------|---------------------------------|
B ---------------------------------|---------------------------------|
G -10----10--1010--10--------------|---------------------------------|
D -8-----8---8-8---8---------------|-11----11--1111--11--------------|
A -6-----6---6-6---6---------------|-9-----9---9-9---9---------------|
E -6-----6---6-6---6---------------|-7-----7---7-7---7---------------|
   1 e + a 2 e + a 3 e + a 4 e + a | 1 e + a 2 e + a 3 e + a 4 e + a |

 |------------Repeat-1x------------------------------|
E ---------------------------------|-----------------|
B ---------------------------------|-----------------|
G ---------------------------------|-----------------|
D -13----13--1313----13--1313--1313|-11----11--1111--|
A -11----11--1111----11--1111--1111|-9-----9---9-9---|
E -9-----9---9-9-----9---9-9---9-9-|-7-----7---7-7---|

----------------|-----------------------------------|
----------------|-----------------------------------|
----------------|-----------------------------------|
--11--1111--1111|-13----13--1313----13--1313--1313--|
--9---9-9---9-9-|-11----11--1111----11--1111--1111--|
--7---7-7---7-7-|-9-----9---9-9-----9---9-9---9-9---|

   1 e + a 2 e + a 3 e + a 4 e + a | 1 e + a 2 e + a 3 e + a 4 e + a
| 1 e + a 2 e + a 3 e + a 4 e + a |

Repeat SECOND CHORUS TWICE as OUTRO

And end on
E -----------------|
B -----------------|
G -10--------------|
D -8---FADE--------|
A -6--------OUT----|
E -6---------------|
   1 + 2 + 3 + 4 + |

NOTE: There's definately lead parts in the Chorus & Bridge that I haven't managed to
figure out, this should
      be enough to get you through the track.
      Big shout out to my boys on this track that I hope is still tearing up NZ radio! 
This forthcoming
      record is definately at the top of my most anticipated list!

http://www.facebook.com/BlackListMusicNZ
Tap to rate this tab
 
# A B C D E F G H I J K L M N O P Q R S T U V W X Y Z