Song name
# A B C D E F G H I J K L M N O P Q R S T U V W X Y Z

Blacklist - Worth Fighting For tab

-------------------------------------------------------------------------------
                             Worth Fighting For - Blacklist
-------------------------------------------------------------------------------
Tabbed by:Tyson Bloomfield
Email: tysonbloomfield@gmail.com

Tuning:DADGBE

This is the main riff played throughout the song, very catchy 
and awesome song! The spacing between chords is not the exact timing listen to the
song to get the idea of the strumming pattern. Drop D tuning.

e|---------------------------------------------------------------------------|
B|---------------------------------------------------------------------------|
G|---------------------------------------------------------------------------|
D|--5--5-5-5-5--7--7-7-7-7--10109-9-5-10109-9-5------------------------------|
A|--5--5-5-5-5--5--5-5-5-5--5-5-5-5-5-5-5-5-5-5------------------------------|
D|--5--5-5-5-5--5--5-5-5-5--5-5-5-5-5-5-5-5-5-5------------------------------|

e|---------------------------------------------------------------------------|
B|---------------------------------------------------------------------------|
G|---------------------------------------------------------------------------|
D|--12-12121212-11-11111111-14-14141414-1111121214---------------------------|
A|--9--9-9-9-9--9--9-9-9-9--9--9-9-9-9--9-9-9-9-9----------------------------|
D|--9--9-9-9-9--9--9-9-9-9--9--9-9-9-9--9-9-9-9-9----------------------------|



************************************
Tap to rate this tab
# A B C D E F G H I J K L M N O P Q R S T U V W X Y Z