Song name
# A B C D E F G H I J K L M N O P Q R S T U V W X Y Z

Blacklisted Me - Reprobate Romance tab

Inro/Verse:
e------------------------------------------|
b------------------------------------------|
g------------------------------------------|
d-3------5------7-----5------3-------------| (play until chorus)
a-1------3------5-----3------1-------------|
e-1------3------5-----3------1-------------|


Chorus:
e-------------------------------------------------------|
b-------------------------------------------------------|
g-------------------------------------------------------|
d-7-----10------5-----3-----5-----7-----10-----3--------|
a-5------8------3-----1-----3-----5-----8------1--------|
e-5------8------3-----1-----3-----5-----8------1--------|

Original Song:

http://www.blacklistedme.com/#!music-video
Tap to rate this tab
# A B C D E F G H I J K L M N O P Q R S T U V W X Y Z