Song name
# A B C D E F G H I J K L M N O P Q R S T U V W X Y Z

Blacklisted - Transparent Opaque tab

/ - slide
You can figure out the palm mutes on your own

Intro x4
D|--------------------------------------------------------|
A|--------------------------------------------------------|
F|----------------------------------------5-5-5-8-8-8-9/--|
C|-2-2-2-2-2-2-2-2-2-2--3--2-2-2-2-2-2-2--5-5-5-8-8-8-9/--|
G|-2-2-2-2-2-2-2-2-2-2--3--2-2-2-2-2-2-2--3-3-3-6-6-6-7/--|
D|-0-0-0-0-0-0-0-0-0-0--1--0-0-0-0-0-0-0------------------|

Fill x1 (hard to hear but it more or less goes like this)
D|----------------------------|
A|----------------------------|
F|------5-5-5-5--8-8-8-5------|
C|-2----5-5-5-5--8-8-8-5---2--|
G|-2----3-3-3-3--6-6-6-3---2--|
D|-0-----------------------0--|

D|----------------|
A|----------------|
F|-9-8-5---8-7----|
C|-9-8-5---8-7-3--|
G|-7-6-3---6-5-3--|
D|-------------1--|

Verse x2
D|-----------------------------------|
A|-----------------------------------|
F|------------------5-5-5-5-8-8-8-5--|
C|-2-2-2-2-2-2-2-2--5-5-5-5-8-8-8-5--|
G|-2-2-2-2-2-2-2-2--3-3-3-3-6-6-6-3--|
D|-0-0-0-0-0-0-0-0-------------------|

D|------------------------------------|
A|------------------------------------|
F|------------------9-8-5-5--8-7------|
C|-2-2-2-2-2-2-2-2--9-8-5-5--8-7-6-3--|
G|-2-2-2-2-2-2-2-2--7-6-3-3--6-5-6-3--|
D|-0-0-0-0-0-0-0-0---------------4-1--|

Chorus x1
D|--------------------------------------|
A|--------------------------------------|
F|--------------------------------------|
C|-2---6-5-2---3-5-2---6-5-2---3-3-3-5--|
G|-2---6-5-2---3-5-2---6-5-2---3-3-3-5--|
D|-0---4-3-0---1-3-0---4-3-0---1-1-1-3--|

Verse x2
D|-----------------------------------|
A|-----------------------------------|
F|------------------5-5-5-5-8-8-8-5--|
C|-2-2-2-2-2-2-2-2--5-5-5-5-8-8-8-5--|
G|-2-2-2-2-2-2-2-2--3-3-3-3-6-6-6-3--|
D|-0-0-0-0-0-0-0-0-------------------|

D|------------------------------------|
A|------------------------------------|
F|------------------9-8-5-5--8-7------|
C|-2-2-2-2-2-2-2-2--9-8-5-5--8-7-6-3--|
G|-2-2-2-2-2-2-2-2--7-6-3-3--6-5-6-3--|
D|-0-0-0-0-0-0-0-0---------------4-1--|

Chorus x1
D|------------------------------------------|
A|------------------------------------------|
F|------------------------------------------|
C|-2---6-5-2---3-5-2---6-5-2---3-3-3-5-5-2--|
G|-2---6-5-2---3-5-2---6-5-2---3-3-3-5-5-2--|
D|-0---4-3-0---1-3-0---4-3-0---1-1-1-3-3-0--|

Breakdown x6
D|---------------------------------------------------------|
A|---------------------------------------------------------|
F|-5-8-7--------9/-----------------------------------------|
C|-5-8-7-3--6-4-9/---2-2-2-2-2-2-2-2-2--2-2-2-2-2-2-2-2-2--|
G|-3-6-5-3--6-4-7/---2-2-2-2-2-2-2-2-2--2-2-2-2-2-2-2-2-2--|
D|-------1--4-3------0-0-0-0-0-0-0-0-0--0-0-0-0-0-0-0-0-0--|
Tap to rate this tab
 
# A B C D E F G H I J K L M N O P Q R S T U V W X Y Z