Song name
# A B C D E F G H I J K L M N O P Q R S T U V W X Y Z

Blacklisted - Self Explosive tab

h - hammer on
p - pull off
/ - slide

Intro x4
D|-------------------|
A|-------------------|
F|-------------------|
C|------------5-7-8--|
G|---5h7------5-7-8--|
D|-0-----6p5--3-5-6--|

Verse x3
D|------------------------------------------------------|
A|------------------------------------------------------|
F|------9-9-9--7-7-7--10-10-10-------9-9-9--7-7-7-------|
C|-2-2--9-9-9--7-7-7--10-10-10--2-2--9-9-9--7-7-7--8-5--|
G|-2-2--7-7-7--5-5-5--8--8--8---2-2--7-7-7--5-5-5--8-5--|
D|-0-0--------------------------0-0----------------6-3--|

Verse Con't x1
D|------------------------------------------------------|
A|------------------------------------------------------|
F|-----------------------------9-9-9-7-7-7--------------|
C|-2-2-2--2-2-2--2-2-2--2-2-2--9-9-9-7-7-7-5-5-5-8-8-8--|
G|-2-2-2--2-2-2--2-2-2--2-2-2--7-7-7-5-5-5-5-5-5-8-8-8--|
D|-0-0-0--0-0-0--0-0-0--0-0-0--------------3-3-3-6-6-6--|
   . . .  . . .  . . .  . . . 
D|-------------------------------------------------------|
A|-------------------------------------------------------|
F|-----------------------------9-9-9-7-7-7-10-10-10------|
C|-2-2-2--2-2-2--2-2-2--2-2-2--9-9-9-7-7-7-10-10-10-8-5--|
G|-2-2-2--2-2-2--2-2-2--2-2-2--7-7-7-5-5-5-8--8--8--8-5--|
D|-0-0-0--0-0-0--0-0-0--0-0-0-----------------------6-3--|
   . . .  . . .  . . .  . . . 


Chorus x4
D|------------------------------|
A|------------------------------|
F|------------------------------|
C|------------------------------|
G|---5h7------------------------|
D|-0-----6p5/3p0--3h5-5--3h5-5--|

Chorus Con't x4
D|-------------------------------|
A|-------------------------------|
F|-------7/9---------------------|
C|-2-----7/9-----7/8------5/7-7--|
G|-2-----5/7-----7/8------5/7-7--|
D|-0-0-0-----0-0-5/6--0-0-3/5-5--|
     . .     . .      . .

Fill x1
D|---------------------------|
A|---------------------------|
F|---------------------------|
C|-2-2-2-2-------------------|
G|-2-2-2-2--2-2-2-2-2-2-2-2--|
D|-0-0-0-0--0-0-0-0-0-0-0-0--|
            . . . . . . . .

Breakdown x4
D|------------------------------|
A|------------------------------|
F|---7/9---------------9/10-10--|
C|-2-7/9-8/7-7--5/7-7--9/10-10--|
G|-2-5/7-8/7-7--5/7-7--7/8--8---|
D|-0-----6/5-5--3/5-5-----------|

Ending x1
D|--------------------------------|
A|--------------------------------|
F|---------------7-7-7---------9--|
C|-2-2-2--5-5-5--7-7-7--8-8-8--9--|
G|-2-2-2--5-5-5--5-5-5--8-8-8--7--|
D|-0-0-0--3-3-3---------6-6-6-----|
Tap to rate this tab
# A B C D E F G H I J K L M N O P Q R S T U V W X Y Z