Song name
# A B C D E F G H I J K L M N O P Q R S T U V W X Y Z

Blacklisted - Eye For An Eye tab

This is a HxC local band from texas that totally kicks ass...
Legend
*=Palm Mute
+=Squeal

(Snare drum solo)
D---------------------------------------------------------------------|
A---------------------------------------------------------------------|
F---------------------------------------------------------------------|   4X
C---------------------------------------------------------------------|
A---------------------------------------------------------------------|
C--0--14-14-10--0--14-14-10-14-14-10--0--13-13-9--0--13-13-9-13-13-9--|

Small break down (1st one)

D---------------------------------|
A---------------------------------|
F----------------^----------------|   12X
C--0-0000-0-0000-0-0000-0-0-------|
A--0-0000-0-0000-0-0000-0-0-------|
C--0-0000-0-0000-0-0000-0-0-------|
   * **** * **** * **** * *
By the 8th one you pause where u see this ^ through the rest until the next one.

Fill                    +
D---------------------------------------------------------------------|
A-----------------------5---------------------------------------------|
F---------------------------------------------------------------------|   2X
C--0-0000-00-3-0-3-0-3-5----0-0000-0----------------------------------|
G--0-0000-0-----------------0-0000-05-8-5-8-4-7-4-7-------------------|
C--0-0000-0-----------------0-0000-0----------------------------------|
   * **** *                 * **** *
After the fill of the break down the chorus i guess comes in

D---------------------------------------------------------------------|
A---------------------------------------------------------------------|
F----10107-7---10107-7-10107-7--9-9-5-5--9-9-5-5-9-9-5-5--------------|   6X
C-00-10107-7-0010107-7-10107-7009-9-5-5--9-9-5-5-9-9-5-5--------------|
A-00-8-8-5-5-008-8-5-5-8-8-5-5007-7-3-3--7-7-3-3-7-7-3-3--------------|
C-00---------00---------------00--------------------------------------|

After that six times u do the same thing 6X more but break down sort of.

D--------------------|
A--------------------|
F--------------------|
C--------------------|
A--------------------|
C--0-0000-0-0000-----|
   * **** * ****
Then PAUSE!!!

Then do the beginning again but after the intro part just the guitar plays for the 
to the real fuckin breakdown.....
D-------------------|
A-------------------|
F-------------------| 8X
C--3-2--------------|
A------3-0-3-0------|
C--------------3-0--|

Then the BREAKDOWN
D---------------|
A---------------|
F---------------|
C---------------| then the Fill that u did last right after every second Chug
A---------------|
C--000-000------|
   *** ***
    (chugs)
Then the chorus then the chug with out the fill listen to the song and youll get
it. www.myspace.com/johnnyringokills
Tap to rate this tab
# A B C D E F G H I J K L M N O P Q R S T U V W X Y Z