Song name
# A B C D E F G H I J K L M N O P Q R S T U V W X Y Z

Blacklisted - Back And Forth tab

~ - Let Ring
/ - Slide
p - Pull Off

Full Step Down
Intro x2
D|----------------|
A|----------------|
F|----------------|
C|-2--5--8/7-5/7--|
G|-2--5--8/7-5/7--|
D|-0--3--6/5-3/5--|

Intro Con't x1
D|----------------------------|
A|----------------------------|
F|----------------------------|
C|-2-2-2-2--5-5-5-5--8/7-5/7--|
G|-2-2-2-2--5-5-5-5--8/7-5/7--|
D|-0-0-0-0--3-3-3-3--6/5-3/5--|

Intro Con't x1
D|----------------|
A|----------------|
F|----------------|
C|-2--5--8/7-5/7--|
G|-2--5--8/7-5/7--|
D|-0--3--6/5-3/5--|

Chorus x2
D|-------------------------------------------------|
A|-------------------------------------------------|
F|-------------------------------------------------|
C|-5p2-2-2-2-2--7p2-2-2-2-2--5p2-2-2-2-2--5/7-8/7--|
G|-5p2-2-2-2-2--7p2-2-2-2-2--5p2-2-2-2-2--5/7-8/7--|
D|-3p0-0-0-0-0--5p0-0-0-0-0--3p0-0-0-0-0--3/5-6/5--|

Verse x2
D|---------------------------------------------------------|
A|---------------------------------------------------------|
F|---------------------------------------------------------|
C|-2~-3-3-3-3-3-3--2~-3-3-3-3-3-3-2~-3-3-3-3-3-3--5/7-8/7--|
G|-2~-3-3-3-3-3-3--2~-3-3-3-3-3-3-2~-3-3-3-3-3-3--5/7-8/7--|
D|-0~-1-1-1-1-1-1--0~-1-1-1-1-1-1-0~-1-1-1-1-1-1--3/5-6/5--|

Chorus x2
D|-------------------------------------------------|
A|-------------------------------------------------|
F|-------------------------------------------------|
C|-5p2-2-2-2-2--7p2-2-2-2-2--5p2-2-2-2-2--5/7-8/7--|
G|-5p2-2-2-2-2--7p2-2-2-2-2--5p2-2-2-2-2--5/7-8/7--|
D|-3p0-0-0-0-0--5p0-0-0-0-0--3p0-0-0-0-0--3/5-6/5--|

Verse x2
D|---------------------------------------------------------|
A|---------------------------------------------------------|
F|---------------------------------------------------------|
C|-2~-3-3-3-3-3-3--2~-3-3-3-3-3-3-2~-3-3-3-3-3-3--5/7-8/7--|
G|-2~-3-3-3-3-3-3--2~-3-3-3-3-3-3-2~-3-3-3-3-3-3--5/7-8/7--|
D|-0~-1-1-1-1-1-1--0~-1-1-1-1-1-1-0~-1-1-1-1-1-1--3/5-6/5--|

Breakdown x8
D|----------------------------|
A|----------------------------|
F|--------------9/------------|
C|-2-2-2-2-2-2--9/2--5/7-8/7--|
G|-2-2-2-2-2-2--7/2--5/7-8/7--|
D|-0-0-0-0-0-0----0--3/5-6/5--|
Tap to rate this tab
 
# A B C D E F G H I J K L M N O P Q R S T U V W X Y Z