Song name
# A B C D E F G H I J K L M N O P Q R S T U V W X Y Z

Blacklisted - Good Grief tab

Staple (2002)
Good Grief
Tabbed by U B the band
Tuning Drop C

Legend
p-pull off
x-scratch
pm-palm mute
/-slide up
\-slide down

Intro: Guitar 1 (Distortion and fuzz)
D|--------------------------------|
A|--------------------------------|
F|--7-----------------------------|
C|--0-----------------------------|
G|--5-----------------------------|
C|--0-----------------------------|

Intro cont. (Distorted, no fuzz)   _
D|--------------------------------| |
A|--------------------------------| |
F|--------------------------------| |
C|--1p0-1p0--0-0--1p0-1p0--0-0----| |
G|--1p0-1p0--0-0--1p0-1p0--0-0----| |
C|--1p0-1p0--0-0--1p0-1p0--0-0----| |
                                    |play 3 times
D|--------------------------------| |
A|--------------------------------| |
F|--------------------------------| |
C|--1p0-1p0--0-0--1p0-1p0--0-3p1--| |
G|--1p0-1p0--0-0--1p0-1p0--0-3p1--| |
C|--1p0-1p0--0-0--1p0-1p0--0-3p1--|_|

Verse 1:
D|--------------------------------|
A|--------------------------------|
F|--------------------------------|
C|--0-----------------------------|
G|--0-----------------------------|
C|--0-----------------------------|

D|--------------------------------|
A|--------------------------------|
F|--------------------------------|
C|--1p0-1p0--0-0--1p0-1p0--0-0----|
G|--1p0-1p0--0-0--1p0-1p0--0-0----|
C|--1p0-1p0--0-0--1p0-1p0--0-0----|

D|--------------------------------|
A|--------------------------------|
F|--------------------------------|
C|--1p0-1p0--0-0--1p0-1p0--0-3p1--|
G|--1p0-1p0--0-0--1p0-1p0--0-3p1--|
C|--1p0-1p0--0-0--1p0-1p0--0-3p1--|

Verse cont.
D|--------------------------------|
A|--------------------------------|
F|--------------------------------|
C|--0---------------------x----x--|
G|--0---------------------x----x--|
C|--0---------------------x----x--|

D|--------------------------------|
A|--------------------------------|
F|--------------------------------|
C|--1p0-1p0--0-0--1p0-1p0--0-0----|
G|--1p0-1p0--0-0--1p0-1p0--0-0----|
C|--1p0-1p0--0-0--1p0-1p0--0-0----|

D|--------------------------------|
A|--------------------------------|
F|--------------------------------|
C|--1p0-1p0--0-0--1p0-1p0--0-3p1--|
G|--1p0-1p0--0-0--1p0-1p0--0-3p1--|
C|--1p0-1p0--0-0--1p0-1p0--0-3p1--|

Verse cont.                        _
D|--------------------------------| |
A|--------------------------------| |
F|--------------------------------| |
C|--0-----------------------------| |
G|--0-------------5-5/6-6/8-8/10--| |
C|--0-----------------------------| |
                                    |
D|--------------------------------| |
A|--------------------------------| |play
F|--------------------------------| |
C|--1p0-1p0--0-0--1p0-1p0--0-0----| |2
G|--1p0-1p0--0-0--1p0-1p0--0-0----| |
C|--1p0-1p0--0-0--1p0-1p0--0-0----| |times
                                    |
D|--------------------------------| |
A|--------------------------------| |
F|--------------------------------| |
C|--1p0-1p0--0-0--1p0-1p0--0-3p1--| |
G|--1p0-1p0--0-0--1p0-1p0--0-3p1--| |
C|--1p0-1p0--0-0--1p0-1p0--0-3p1--|_|

Chorus: (Distorted) *play 4 times*
D|--------------------------------|
A|--------------------------------|
F|--------------3-------------10--|
C|--1-0----1-0--3--1-0----1-0--x--|
G|--1-0-00-1-0--1--1-0-00-1-0--8--|
C|--1-0-00-1-0-----1-0-00-1-0-----|
        pm             pm

Link to verse 2
D|--------------------------------|
A|--------------------------------|
F|--------------------------------|
C|--0-----------------------------|
G|--0-------------5-5/6-6/8-8/10--|
C|--0-----------------------------|

Verse 2:
D|--------------------------------|
A|--------------------------------|
F|--------------------------------|
C|--0-----------------------------|
G|--0-----------------------------|
C|--0-----------------------------|

D|--------------------------------|
A|--------------------------------|
F|--------------------------------|
C|--1p0-1p0--0-0--1p0-1p0--0-0----|
G|--1p0-1p0--0-0--1p0-1p0--0-0----|
C|--1p0-1p0--0-0--1p0-1p0--0-0----|

D|--------------------------------|
A|--------------------------------|
F|--------------------------------|
C|--1p0-1p0--0-0--1p0-1p0--0-3p1--|
G|--1p0-1p0--0-0--1p0-1p0--0-3p1--|
C|--1p0-1p0--0-0--1p0-1p0--0-3p1--|

Verse 2 cont.
D|--------------------------------|
A|--------------------------------|
F|--------------------------------|
C|--0---------------------x-x--x--|
G|--0---------------------x-x--x--|
C|--0---------------------x-x--x--|

D|--------------------------------|
A|--------------------------------|
F|--------------------------------|
C|--1p0-1p0--0-0--1p0-1p0--0-0----|
G|--1p0-1p0--0-0--1p0-1p0--0-0----|
C|--1p0-1p0--0-0--1p0-1p0--0-0----|

D|--------------------------------|
A|--------------------------------|
F|--------------------------------|
C|--1p0-1p0--0-0--1p0-1p0--0-3p1--|
G|--1p0-1p0--0-0--1p0-1p0--0-3p1--|
C|--1p0-1p0--0-0--1p0-1p0--0-3p1--|

Verse 2 cont.
D|--------------------------------|
A|--------------------------------|
F|--------------------------------|
C|--0-----------------------------|
G|--0-------------5-5/6-6/8-8/10--|
C|--0-----------------------------|

D|--------------------------------|
A|--------------------------------|
F|--------------------------------|
C|--1p0-1p0--0-0--1p0-1p0--0-0----|
G|--1p0-1p0--0-0--1p0-1p0--0-0----|
C|--1p0-1p0--0-0--1p0-1p0--0-0----|

D|--------------------------------|
A|--------------------------------|
F|--------------------------------|
C|--1p0-1p0--0-0--1p0-1p0--0-3p1--|
G|--1p0-1p0--0-0--1p0-1p0--0-3p1--|
C|--1p0-1p0--0-0--1p0-1p0--0-3p1--|

Verse 2 cont.
D|--------------------------------|
A|--------------------------------|
F|--------------------------------|
C|--0-----------------------------|
G|--0-------------5-5/6-6/8-000---|
C|--0-----------------------000---|
                            pmpm

D|--------------------------------|
A|--------------------------------|
F|--------------------------------|
C|--1p0-1p0--0-0--1p0-1p0--0-0----|
G|--1p0-1p0--0-0--1p0-1p0--0-0----|
C|--1p0-1p0--0-0--1p0-1p0--0-0----|

D|--------------------------------|
A|--------------------------------|
F|--------------------------------|
C|--1p0-1p0--0-0--1p0-1p0--0-3p1--|
G|--1p0-1p0--0-0--1p0-1p0--0-3p1--|
C|--1p0-1p0--0-0--1p0-1p0--0-3p1--|

Chorus: (Distorted) *play 4 times*
D|--------------------------------|
A|--------------------------------|
F|--------------3-------------10--|
C|--1-0----1-0--3--1-0----1-0--x--|
G|--1-0-00-1-0--1--1-0-00-1-0--8--|
C|--1-0-00-1-0-----1-0-00-1-0-----|
        pm             pm

Bridge: (low distortion/strum) *play 3 times*
D|--------------------------------|
A|--------------------------------|
F|--5------/7------/9------9------|
C|--5------/7------/10-----9------|
G|--3------/5------/7------7------|
C|--3------/5------/7------7------|

Bridge: (low distortion/strum) *play once*
D|--------------------------------|
A|--------------------------------|
F|--5------/7------/9------9--9---|
C|--5------/7------/10-----10\9---|
G|--3------/5------/7------7--7---|
C|--3------/5------/7-------------|

After Bridge: (distortion)         _
D|--------------------------------| |
A|--------------------------------| |
F|--------------------------------| |
C|--1p0-1p0--0-0--1p0-1p0--0-0----| |
G|--1p0-1p0--0-0--1p0-1p0--0-0----| |
C|--1p0-1p0--0-0--1p0-1p0--0-0----| |
                                    |play 2 times
D|--------------------------------| |
A|--------------------------------| |
F|--------------------------------| |
C|--1p0-1p0--0-0--1p0-1p0--0-3p1--| |
G|--1p0-1p0--0-0--1p0-1p0--0-3p1--| |
C|--1p0-1p0--0-0--1p0-1p0--0-3p1--|_|

Chorus: (Distorted) *play 4 times*
D|--------------------------------|
A|--------------------------------|
F|--------------3-------------10--|
C|--1-0----1-0--3--1-0----1-0--x--|
G|--1-0-00-1-0--1--1-0-00-1-0--8--|
C|--1-0-00-1-0-----1-0-00-1-0-----|
        pm             pm

D|--------------------------------|
A|--------------------------------|
F|--------------------------------|
C|--00000--00000--00000--00000----|
G|--00000--00000--00000--00000----|
C|--00000--00000--00000--00000----|

Finished!
Tap to rate this tab
# A B C D E F G H I J K L M N O P Q R S T U V W X Y Z