Guitaretab - guitar tabs
Song name
# A B C D E F G H I J K L M N O P Q R S T U V W X Y Z

Blacklisted - Coming Clean tab

/ - slide
p - pull off

In My Defense... x2
Db|------------------------|
Ab|------------------------|
Fb|------------------------|
Cb|-2---8---8/7-7/5-7-5-2--|
Gb|-2---8---8/7-7/5-7-5-2--|
Db|-0---6---6/5-5/3-5-3-0--|

Two Three Four! x1
Db|--------------------------------------------------------------------|
Ab|--------------------------------------------------------------------|
Fb|----------------------------------3-3-3-3-3-3-3-3--5-5-5-5-5-5-5-5--|
Cb|-2-2-2-2-2-2-2-2-2-2-2-2-2-2-2-2--3-3-3-3-3-3-3-3--5-5-5-5-5-5-5-5--|
Gb|-2-2-2-2-2-2-2-2-2-2-2-2-2-2-2-2--1-1-1-1-1-1-1-1--3-3-3-3-3-3-3-3--|
Db|-0-0-0-0-0-0-0-0-0-0-0-0-0-0-0-0------------------------------------|
[ Tab from: http://www.guitaretab.com/b/blacklisted/162379.html ]
Db|--------------------------------------------------------------------|
Ab|--------------------------------------------------------------------|
Fb|----------------------------------3-3-3-3-3-3-3-3-------------------|
Cb|-2-2-2-2-2-2-2-2-2-2-2-2-2-2-2-2--3-3-3-3-3-3-3-3--5-5-5-5-5-5-5-5--|
Gb|-2-2-2-2-2-2-2-2-2-2-2-2-2-2-2-2--1-1-1-1-1-1-1-1--5-5-5-5-5-5-5-5--|
Db|-0-0-0-0-0-0-0-0-0-0-0-0-0-0-0-0-------------------3-3-3-3-3-3-3-3--|

Db|--------------------------------------------------------------------|
Ab|--------------------------------------------------------------------|
Fb|----------------------------------3-3-3-3-3-3-3-3--5-5-5-5-5-5-5-5--|
Cb|-2-2-2-2-2-2-2-2-2-2-2-2-2-2-2-2--3-3-3-3-3-3-3-3--5-5-5-5-5-5-5-5--|
Gb|-2-2-2-2-2-2-2-2-2-2-2-2-2-2-2-2--1-1-1-1-1-1-1-1--3-3-3-3-3-3-3-3--|
Db|-0-0-0-0-0-0-0-0-0-0-0-0-0-0-0-0------------------------------------|

Db|--------------------------------------------------------------------|
Ab|--------------------------------------------------------------------|
Fb|--------------------------------------------------------------------|
Cb|-2-2-2-2-2-2-2-2-2-2-2-2-2-2-2-2--3-3-3-3-3-3-3-3--5-5-5-5-5-5-5-5--|
Gb|-2-2-2-2-2-2-2-2-2-2-2-2-2-2-2-2--3-3-3-3-3-3-3-3--5-5-5-5-5-5-5-5--|
Db|-0-0-0-0-0-0-0-0-0-0-0-0-0-0-0-0--1-1-1-1-1-1-1-1--3-3-3-3-3-3-3-3--|


I'm Coming Clean x4
Db|------------------|
Ab|------------------|
Fb|------------------|
Cb|-2-2-2-2-3p2-2-2--|
Gb|-2-2-2-2-3p2-2-2--|
Db|-0-0-0-0-1p0-0-0--|
Related for Coming Clean tab