Song name
# A B C D E F G H I J K L M N O P Q R S T U V W X Y Z

Blacklisted - Who I Am tab

/ - slide

Verse x4
D|----------------------------------------------|
A|----------------------------------------------|
F|-5-5-5--3-3--6/5-5-5-5---------3-3-3-5-5-5-5--|
C|-5-5-5--3-3--6/5-5-5-5--6-6-6--3-3-3-5-5-5-5--|
G|-3-3-3--1-1--4/3-3-3-3--6-6-6--1-1-1-3-3-3-3--|
D|------------------------4-4-4-----------------|

Chorus x2
D|-----------------------|
A|-----------------------|
F|-------3---------------|
C|-5--3--3---5--5/6-5/3--|
G|-5--3--1---5--5/6-5/3--|
D|-3--1------3--3/4-3/1--|

Fill x1
D|----------------------------------------------|
A|----------------------------------------------|
F|-------------------------------------------5--|
C|-5-5-5-5-5-5-5-5-5--5-5-5-5-5-5-5-5-5-5-5--5--|
G|-5-5-5-5-5-5-5-5-5--5-5-5-5-5-5-5-5-5-5-5--3--|
D|-3-3-3-3-3-3-3-3-3--3-3-3-3-3-3-3-3-3-3-3-----|
     . . . . . . . .          . . . . . . .

verse x2
D|----------------------------------------------|
A|----------------------------------------------|
F|-5-5-5--3-3--6/5-5-5-5---------3-3-3-5-5-5-5--|
C|-5-5-5--3-3--6/5-5-5-5--6-6-6--3-3-3-5-5-5-5--|
G|-3-3-3--1-1--4/3-3-3-3--6-6-6--1-1-1-3-3-3-3--|
D|------------------------4-4-4-----------------|

Chorus x2
D|-----------------------|----|
A|-----------------------|----|
F|-------3---------------|----|
C|-5--3--3---5--5/6-5/3--|-5--|
G|-5--3--1---5--5/6-5/3--|-5--|
D|-3--1------3--3/4-3/1--|-3--|

Fill x4
D|----------|
A|----------|
F|----------|
C|-6-6-6-5--|
G|-6-6-6-5--|
D|-4-4-4-3--|


Breakdown x8
D|-----------------------------------------|
A|-----------------------------------------|
F|-----------------------------------------|
C|-5-5-5-5-5--5-5-5-5-5--5-5-5-5--6-6-6-5--|
G|-5-5-5-5-5--5-5-5-5-5--5-5-5-5--6-6-6-5--|
D|-3-3-3-3-3--3-3-3-3-3--3-3-3-3--4-4-4-3--|
   . . . .    . . . .    . . . . 
Tap to rate this tab
# A B C D E F G H I J K L M N O P Q R S T U V W X Y Z