Song name
# A B C D E F G H I J K L M N O P Q R S T U V W X Y Z

Blacklisted - Wolves At My Door tab

/ - Slide
p - Pull Off
~ - Let Ring

Intro x3
Db|------------|
Ab|------------|
Fb|-5/4--------|
Cb|-5/4-7/5-2--|
Gb|-3/2-7/5-2--|
Db|-----5/3-0--|

Verse x2
Db|-----------------------------------|
Ab|-----------------------------------|
Fb|-----------------------------------|
Cb|-2-2-2-2-2-2-2-2--5-5-5-5-5-5-5/3--|
Gb|-2-2-2-2-2-2-2-2--5-5-5-5-5-5-5/3--|
Db|-0-0-0-0-0-0-0-0--3-3-3-3-3-3-3/1--|

Db|---------------------------------|
Ab|---------------------------------|
Fb|------------------3~--5/4--------|
Cb|-2-2-2-2-2-2-2-2--3~--5/4-7/5-2--|
Gb|-2-2-2-2-2-2-2-2--1~--3/2-7/5-2--|
Db|-0-0-0-0-0-0-0-0----------5/3-0--|

Chorus x1
eb|------------------------------|
Bb|------------------------------|
Gb|-------2------------3---------|
Db|-2-4-5-2-4/5--2-4-5-3-4/5-2~--|
Ab|-2-4-5-0-4/5--2-4-5-1-4/5-2~--|
Db|-0-2-3---2/3--0-2-3---2/3-0~--|

eb|---------------------------------------|
Bb|---------------------------------------|
Gb|----------------------------5/4--------|
Db|-5-5-2~---3-3-2~---5-5-2~---5/4-7/5-2--|
Ab|-5-5-2~---3-3-2~---5-5-2~---3/2-7/5-2--|
Db|-3-3-0~---1-1-0~---3-3-0~-------5/3-0--|


Verse x2
Db|-----------------------------------|
Ab|-----------------------------------|
Fb|-----------------------------------|
Cb|-2-2-2-2-2-2-2-2--5-5-5-5-5-5-5/3--|
Gb|-2-2-2-2-2-2-2-2--5-5-5-5-5-5-5/3--|
Db|-0-0-0-0-0-0-0-0--3-3-3-3-3-3-3/1--|

Db|---------------------------------|
Ab|---------------------------------|
Fb|------------------3~--5/4--------|
Cb|-2-2-2-2-2-2-2-2--3~--5/4-7/5-2--|
Gb|-2-2-2-2-2-2-2-2--1~--3/2-7/5-2--|
Db|-0-0-0-0-0-0-0-0----------5/3-0--|


Breakdown x2
eb|-------------------------------------------------|
Bb|-------------------------------------------------|
Gb|-------------------------------------------------|
Db|-2-2-2-2-2--3/5-3-6-5-3/5---2-2-2-2-2--3/5-3-6~--|
Ab|-2-2-2-2-2--3/5-3-6-5-3/5---2-2-2-2-2--3/5-3-6~--|
Db|-0-0-0-0-0--1/3-1-4-3-1/3---0-0-0-0-0--1/3-1-4~--|

Outro x6
eb|------------------------------------|-----|
Bb|------------------------------------|-----|
Gb|------------------------------------|-----|
Db|-2-2-2-2-2-2-2-2--3-3-3-3--5-5-5-5--|-2~--|
Ab|-2-2-2-2-2-2-2-2--3-3-3-3--5-5-5-5--|-2~--|
Db|-0-0-0-0-0-0-0-0--1-1-1-1--3-3-3-3--|-0~--|
Tap to rate this tab
 
# A B C D E F G H I J K L M N O P Q R S T U V W X Y Z