Song name
# A B C D E F G H I J K L M N O P Q R S T U V W X Y Z

Blacklisted - Cannonized tab

/ - slide
p - pull off

Full Step Down
Verse x1
D|------------------------------------------------------|
A|------------------------------------------------------|
F|-------------------------------------------7-9-7/9/7--|
C|-2-2-2-2-3p2---2-2-2-2-5p2---2-2-2-2-3p2---7-9-7/9/7--|
G|-2-2-2-2-3p2---2-2-2-2-5p2---2-2-2-2-3p2---5-7-5/7/5--|
D|-0-0-0-0-1p0---0-0-0-0-3p0---0-0-0-0-1p0--------------|

D|--------------------------------------------------------|
A|--------------------------------------------------------|
F|--------------------------------------------7-----------|
C|-2-2-2-2-3p2---2-2-2-2-5p2---2-2-2-2-3p2----7-----------|
G|-2-2-2-2-3p2---2-2-2-2-5p2---2-2-2-2-3p2----5-5h7p5---5-|
D|-0-0-0-0-1p0---0-0-0-0-3p0---0-0-0-0-1p0------------7---|

D|------------------------------------------------------|
A|------------------------------------------------------|
F|-------------------------------------------7-9-7/9/7--|
C|-2-2-2-2-3p2---2-2-2-2-5p2---2-2-2-2-3p2---7-9-7/9/7--|
G|-2-2-2-2-3p2---2-2-2-2-5p2---2-2-2-2-3p2---5-7-5/7/5--|
D|-0-0-0-0-1p0---0-0-0-0-3p0---0-0-0-0-1p0--------------|

D|-------------------------------------------------------|
A|-------------------------------------------------------|
F|-------------------------------------------7-10-9/7/9--|
C|-2-2-2-2-3p2---2-2-2-2-5p2---2-2-2-2-3p2---7-10-9/7/9--|
G|-2-2-2-2-3p2---2-2-2-2-5p2---2-2-2-2-3p2---5-8--7/5/7--|
D|-0-0-0-0-1p0---0-0-0-0-3p0---0-0-0-0-1p0---------------|



Chorus x1
D|-----------------------------------------------------------------------|
A|-----------------------------------------------------------------------|
F|------7/9/7/9-------10/9/7/9--------7/9/7/9-------10/9/7/9---5-7-9-----|
C|-2-2--7/9/7/9--2-2--10/9/7/9---2-2--7/9/7/9--2-2--10/9/7/9---5-7-9--2--|
G|-2-2--5/7/5/7--2-2---8/7/5/7---2-2--5/7/5/7--2-2---8/7/5/7---3-5-7--2--|
D|-0-0-----------0-0-------------0-0-----------0-0--------------------0--|

Fill x1
D|-------------------------------|
A|-------------------------------|
F|---------9---10----------------|
C|-2---2---9---10---3-3-3-3-3-3--|
G|-2---2---7---8----3-3-3-3-3-3--|
D|-0---0------------1-1-1-1-1-1--|

Breakdown x4
D|----------------------------|
A|----------------------------|
F|-9/10-7/9-7/9---------------|
C|-9/10-7/9-7/9--2-2-2-2-2-2--|
G|-7/8--5/7-5/7--2-2-2-2-2-2--|
D|---------------0-0-0-0-0-0--|

Breakdown Con't x2
D|---------------------------------|
A|---------------------------------|
F|-----------------------------9/--|
C|-3p2--3/7--3p2--2-2-2-2-2-2--9/--|
G|-3p2--3/7--3p2--2-2-2-2-2-2--7/--|
D|-1p0--1/5--1p0--0-0-0-0-0-0------|

D|-------------------------------|
A|-------------------------------|
F|-------------------------------|
C|-3p2--3/7--3p2--2-2-2-2-2-2-2--|
G|-3p2--3/7--3p2--2-2-2-2-2-2-2--|
D|-1p0--1/5--1p0--0-0-0-0-0-0-0--|
Tap to rate this tab
# A B C D E F G H I J K L M N O P Q R S T U V W X Y Z