Guitaretab - guitar tabs
Song name
# A B C D E F G H I J K L M N O P Q R S T U V W X Y Z

Blacklisted - 3800 Were Unstoppable tab

/ - slide
~ - let ring
... - palm mute

Full Step Down
Intro
D|-------------------------------------------------------------| x2
A|-------------------------------------------------------------|
F|-10/9--7/9--10/9--7/9--------10/9--7/9--10/9--7/9--10-10-10--|
C|-10/9--7/9--10/9--7/9--8/7---10/9--7/9--10/9--7/9--10-10-10--|
G|-8-/7--5/7--8-/7--5/7--8/7---8-/7--5/7--8-/7--5/7--8--8--8---|
D|-----------------------6/5-----------------------------------|

D|-----|
A|-----|
F|-----|
C|-2~--|
G|-2~--|
D|-0~--|

D|----------------------------------------| x3
A|----------------------------------------|
F|-9/-----10/----------9/-----7/----------|
C|-9/-2-2-10/-2-2-2----9/-2-2-7/-2-2-5/8--|
G|-7/-2-2-8-/-2-2-2----7/-2-2-5/-2-2-5/8--|
D|----0-0-----0-0-0-------0-0----0-0-3/6--|
      . .     . .	  . .    . .

D|--------------------------|
A|--------------------------|
F|--------------------------|
C|-7---5---8---7---5/7--2~--|
G|-7---5---8---7---5/7--2~--|
D|-5-0-3-0-6-0-5-0-3/5--0~--|
     .   .   .   .

Verse	
D|-------------------------------------------------------| x2
A|-------------------------------------------------------|
F|-------------------------------------------------------|
C|-2-2-2-2-2-2-2-2-2-2-2-2-2-2-2-2--7---5---8---7---5/7--|
G|-2-2-2-2-2-2-2-2-2-2-2-2-2-2-2-2--7---5---8---7---5/7--|
D|-0-0-0-0-0-0-0-0-0-0-0-0-0-0-0-0--5-0-3-0-6-0-5-0-3/5--|
     . . . . . . . . . . . . . . .    .   .   .   .

D|-------------------------------------------------------|
A|-------------------------------------------------------|
F|-9-9-9-9-9-9-9-9-9-9-9-9-9-9-9-9-----------------------|
C|-9-9-9-9-9-9-9-9-9-9-9-9-9-9-9-9--7---5---8---7---5/7--|
G|-7-7-7-7-7-7-7-7-7-7-7-7-7-7-7-7--7---5---8---7---5/7--|
D|----------------------------------5-0-3-0-6-0-5-0-3/5--|
  				      .   .   .   .

D|-------------------------------------------------------|
A|-------------------------------------------------------|
F|-------------------------------------------------------|
C|-2-2-2-2-2-2-2-2-2-2-2-2-2-2-2-2--7---5---8---7---5/7--|
G|-2-2-2-2-2-2-2-2-2-2-2-2-2-2-2-2--7---5---8---7---5/7--|
D|-0-0-0-0-0-0-0-0-0-0-0-0-0-0-0-0--5-0-3-0-6-0-5-0-3/5--|
     . . . . . . . . . . . . . . .    .   .   .   .


Chorus
D|-----------------------------------------------------------------------|
A|-----------------------------------------------------------------------|
F|-----------------------------------------------------------------------|
C|-2-2-2-5--5-5-5---5/8-7-7-7--7-7-7/5---2-2-2-5--5-5-5--3-3-3-3--3-3-3--|
G|-2-2-2-5--5-5-5---5/8-7-7-7--7-7-7/5---2-2-2-5--5-5-5--3-3-3-3--3-3-3--|
D|-0-0-0-3--3-3-3---3/6-5-5-5--5-5-5/3---0-0-0-3--3-3-3--1-1-1-1--1-1-1--|
     . .    . .         . .    . .         . .    . .      . .    . .
[ Tab from: http://www.guitaretab.com/b/blacklisted/97619.html ]
D|----------------------------------------------------------------------| 
A|----------------------------------------------------------------------|
F|----------------------------------------------------------------------|
C|-2-2-2-5--5-5-5---5/8-7-7-7--7-7-7/5---2-2-2-5--5-5-5--3-3-3-3-3-3-3--|
G|-2-2-2-5--5-5-5---5/8-7-7-7--7-7-7/5---2-2-2-5--5-5-5--3-3-3-3-3-3-3--|
D|-0-0-0-3--3-3-3---3/6-5-5-5--5-5-5/3---0-0-0-3--3-3-3--1-1-1-1-1-1-1--|
     . .    . .         . .    . .         . .    . .      . . . . . .

D|---------------------|
A|---------------------|
F|-----/9--------------|
C|-2~--/9---2~--5-7-8--|
G|-2~--/7---2~--5-7-8--|
D|-0~-------0~--3-5-6--|

Verse
D|---------------------| x3
A|---------------------|
F|---------------------|
C|-2--8/7--7/5--5/7/8--|
G|-2--8/7--7/5--5/7/8--|
D|-0--6/5--5/3--3/5/6--|

D|-----------------------------------|
A|-----------------------------------|
F|-----------------------------------|
C|-2--8/7---7---5---8---7---5/7--2~--|
G|-2--8/7---7---5---8---7---5/7--2~--|
D|-0--6/5---5-0-3-0-6-0-5-0-3/5--0~--|
              .   .   .   .

D|-------------------------------------------------------|
A|-------------------------------------------------------|
F|-------------------------------------------------------|
C|-7---5---8---7---5/7--2-2-2-2-2-2-2-2-2-2-2-2-2-2-2-2--|
G|-7---5---8---7---5/7--2-2-2-2-2-2-2-2-2-2-2-2-2-2-2-2--|
D|-5-0-3-0-6-0-5-0-3/5--0-0-0-0-0-0-0-0-0-0-0-0-0-0-0-0--|
         .   .   .   .    . . . . . . . . . . . . . . . 

D|-------------------------------------------------------|
A|-------------------------------------------------------|
F|----------------------9-9-9-9-9-9-9-9-9-9-9-9-9-9-9-9--|
C|-7---5---8---7---5/7--9-9-9-9-9-9-9-9-9-9-9-9-9-9-9-9--|
G|-7---5---8---7---5/7--7-7-7-7-7-7-7-7-7-7-7-7-7-7-7-7--|
D|-5-0-3-0-6-0-5-0-3/5-----------------------------------|

D|-------------------------------------------------------|
A|-------------------------------------------------------|
F|-------------------------------------------------------|
C|-7---5---8---7---5/7--2-2-2-2-2-2-2-2-2-2-2-2-2-2-2-2--|
G|-7---5---8---7---5/7--2-2-2-2-2-2-2-2-2-2-2-2-2-2-2-2--|
D|-5-0-3-0-6-0-5-0-3/5--0-0-0-0-0-0-0-0-0-0-0-0-0-0-0-0--|
         .   .   .   .    . . . . . . . . . . . . . . . 

D|----------------------|-----------------------------|
A|----------------------|-----------------------------|
F|----------------------|-9--/9--/9-------------------|
C|-7---5---8---7---5/7--|-9--/9--/9--3-3-3-3-3-3-3-3--|
G|-7---5---8---7---5/7--|-7--/7--/7--3-3-3-3-3-3-3-3--|
D|-5-0-3-0-6-0-5-0-3/5--|------------1-1-1-1-1-1-1-1--|
     .   .   .   .                   . . . . . .

Chorus
D|-----------------------------------------------------------------------|
A|-----------------------------------------------------------------------|
F|-----------------------------------------------------------------------|
C|-2-2-2-5--5-5-5---5/8-7-7-7--7-7-7/5---2-2-2-5--5-5-5--3-3-3-3--3-3-3--|
G|-2-2-2-5--5-5-5---5/8-7-7-7--7-7-7/5---2-2-2-5--5-5-5--3-3-3-3--3-3-3--|
D|-0-0-0-3--3-3-3---3/6-5-5-5--5-5-5/3---0-0-0-3--3-3-3--1-1-1-1--1-1-1--|
     . .    . .         . .    . .         . .    . .      . .    . .

D|--------------------------------------------------------------------------| 
A|--------------------------------------------------------------------------|
F|--------------------------------------------------------------------------|
C|-2-2-2-5--5-5-5---5/8-7-7-7--7-7-7/5---2-2-2-5--5-5-5--3-3-3-3-3-3-3--2~--|
G|-2-2-2-5--5-5-5---5/8-7-7-7--7-7-7/5---2-2-2-5--5-5-5--3-3-3-3-3-3-3--2~--|
D|-0-0-0-3--3-3-3---3/6-5-5-5--5-5-5/3---0-0-0-3--3-3-3--1-1-1-1-1-1-1--0~--|
     . .    . .         . .    . .         . .    . .      . . . . . .
Related for 3800 Were Unstoppable tab