Song name
# A B C D E F G H I J K L M N O P Q R S T U V W X Y Z

Blacklisted - Divorced tab

p - pull off

1.5 Steps Down
Intro x1
Db|-------------------------------------------------------------------|
Ab|-------------------------------------------------------------------|
Fb|-------------------------------------------------------------------|
Cb|-8-8-8-8-8p2-2-2-2--8-8-8-8-8p2-2--8-8-8-8-8p2-2-2-2--5-2-3-2-5-2--|
Gb|-8-8-8-8-8p2-2-2-2--8-8-8-8-8p2-2--8-8-8-8-8p2-2-2-2--5-2-3-2-5-2--|
Db|-6-6-6-6-6p0-0-0-0--6-6-6-6-6p0-0--6-6-6-6-6p0-0-0-0--3-0-1-0-3-0--|

Db|---------------------------------------------------------------------|
Ab|---------------------------------------------------------------------|
Fb|---------------------------------------------------------------------|
Cb|-8-8-8-8-8p2-2-2-2--8-8-8-8-8p2-2--8-8-8-8-8p2-2-2-2--5-2-3-2-6-8-2--|
Gb|-8-8-8-8-8p2-2-2-2--8-8-8-8-8p2-2--8-8-8-8-8p2-2-2-2--5-2-3-2-6-8-2--|
Db|-6-6-6-6-6p0-0-0-0--6-6-6-6-6p0-0--6-6-6-6-6p0-0-0-0--3-0-1-0-4-6-0--|


Verse x1
Db|------------------------------------------------|
Ab|------------------------------------------------|
Fb|------------------------------------------------|
Cb|-2-2-2-2-8-8-8-8--2-2-2-2-3-5-5--2-2-2-2-2-3-3--|
Gb|-2-2-2-2-8-8-8-8--2-2-2-2-3-5-5--2-2-2-2-2-3-3--|
Db|-0-0-0-0-6-6-6-6--0-0-0-0-1-3-3--0-0-0-0-0-1-1--|

Db|---------------------------|
Ab|---------------------------|
Fb|---------------------------|
Cb|-2-2-2-2-8-8-8-8--2-3-5-8--|
Gb|-2-2-2-2-8-8-8-8--2-3-5-8--|
Db|-0-0-0-0-6-6-6-6--0-1-3-6--|

Db|-------------------------------------------------------------------|
Ab|-------------------------------------------------------------------|
Fb|-------------------------------------------------------------------|
Cb|-2-2-2-2-2-2-2-2-8-8-8-8-8-8-8-8--2-2-2-2-3-3-3-3-5-5-5-5-8-8-8-8--|
Gb|-2-2-2-2-2-2-2-2-8-8-8-8-8-8-8-8--2-2-2-2-3-3-3-3-5-5-5-5-8-8-8-8--|
Db|-0-0-0-0-0-0-0-0-6-6-6-6-6-6-6-6--0-0-0-0-1-1-1-1-3-3-3-3-6-6-6-6--|


Fill x1
Db|---------------------------------------------------------------------|
Ab|---------------------------------------------------------------------|
Fb|---------------------------------------------------------------------|
Cb|-8-8-8-8-8p2-2-2-2--8-8-8-8-8p2-2--8-8-8-8-8p2-2-2-2--5-2-3-2-6-5-2--|
Gb|-8-8-8-8-8p2-2-2-2--8-8-8-8-8p2-2--8-8-8-8-8p2-2-2-2--5-2-3-2-6-5-2--|
Db|-6-6-6-6-6p0-0-0-0--6-6-6-6-6p0-0--6-6-6-6-6p0-0-0-0--3-0-1-0-4-3-0--|


Breakdown x8 (some slight strumming variations here but you'll be able to figure it out)
Db|---------------------------|
Ab|---------------------------|
Fb|---------------------------|
Cb|-2-2-2-2--8-8-8-8-8-8-8-8--|
Gb|-2-2-2-2--8-8-8-8-8-8-8-8--|
Db|-0-0-0-0--6-6-6-6-6-6-6-6--|


Outrox1
Db|---------------------------------------------------------------------|
Ab|---------------------------------------------------------------------|
Fb|---------------------------------------------------------------------|
Cb|-8-8-8-8-8p2-2-2-2--8-8-8-8-8p2-2--8-8-8-8-8p2-2-2-2--5-2-3-2-6-5-2--|
Gb|-8-8-8-8-8p2-2-2-2--8-8-8-8-8p2-2--8-8-8-8-8p2-2-2-2--5-2-3-2-6-5-2--|
Db|-6-6-6-6-6p0-0-0-0--6-6-6-6-6p0-0--6-6-6-6-6p0-0-0-0--3-0-1-0-4-3-0--|
Tap to rate this tab
 
# A B C D E F G H I J K L M N O P Q R S T U V W X Y Z