Guitaretab - guitar tabs
Song name
# A B C D E F G H I J K L M N O P Q R S T U V W X Y Z

Blacklisted - How Quickly We Forget tab

h - hammer on
p - pull off
. - palm mute

1.5 Steps Down
Intro x4
Db|---------------------------------|
Ab|---------------------------------|
Fb|---------------------------------|
Cb|-2h3-3-3-3p2--2-2-2--2-2-2--2-2--|
Gb|-2h3-3-3-3p2--2-2-2--2-2-2--2-2--|
Db|-0h1-1-1-1p0--0-0-0--0-0-0--0-0--|
		 . .    . .    . .

Verse x1
Db|------------|
Ab|------------|
Fb|------------|
Cb|-2-3-5-5-5--|
Gb|-2-3-5-5-5--|
Db|-0-1-3-3-3--|

Db|------------------------------------------------------------------------|
Ab|------------------------------------------------------------------------|
Fb|------------------------------------------------------------------------|
Cb|-2-2-2-2-2-2-2-2-5-5-5---2-2-2-2-2-2-2-2-3-3-3---2-2-2-2-2-2-2-2-5-5-5--|
Gb|-2-2-2-2-2-2-2-2-5-5-5---2-2-2-2-2-2-2-2-3-3-3---2-2-2-2-2-2-2-2-5-5-5--|
Db|-0-0-0-0-0-0-0-0-3-3-3---0-0-0-0-0-0-0-0-1-1-1---0-0-0-0-0-0-0-0-3-3-3--|
      . . . . . . .           . . . . . . .           . . . . . . . 
Db|-----------------------------------|
Ab|-----------------------------------|
Fb|-----------------------------------|
Cb|-2-2-2-2-2-2-2-2--3-3-3-3-3-3-3-3--|
Gb|-2-2-2-2-2-2-2-2--3-3-3-3-3-3-3-3--|
Db|-0-0-0-0-0-0-0-0--1-1-1-1-1-1-1-1--|

[ Tab from: http://www.guitaretab.com/b/blacklisted/97621.html ]
Chorus x2
Db|-------------------------------------------------|
Ab|-------------------------------------------------|
Fb|-------------------------------------------------|
Cb|-2-2-2-2-2-2-2-2--3-3-3--6-6-6-6-6-6-6-6--5-5-5--|
Gb|-2-2-2-2-2-2-2-2--3-3-3--6-6-6-6-6-6-6-6--5-5-5--|
Db|-0-0-0-0-0-0-0-0--1-1-1--4-4-4-4-4-4-4-4--3-3-3--|


Verse x
Db|------------------------------------------------------------------------|
Ab|------------------------------------------------------------------------|
Fb|------------------------------------------------------------------------|
Cb|-2-2-2-2-2-2-2-2-5-5-5---2-2-2-2-2-2-2-2-3-3-3---2-2-2-2-2-2-2-2-5-5-5--|
Gb|-2-2-2-2-2-2-2-2-5-5-5---2-2-2-2-2-2-2-2-3-3-3---2-2-2-2-2-2-2-2-5-5-5--|
Db|-0-0-0-0-0-0-0-0-3-3-3---0-0-0-0-0-0-0-0-1-1-1---0-0-0-0-0-0-0-0-3-3-3--|
      . . . . . . .           . . . . . . .           . . . . . . . 
Db|-----------------------------------|
Ab|-----------------------------------|
Fb|-----------------------------------|
Cb|-2-2-2-2-2-2-2-2--3-3-3-3-3-3-3-3--|
Gb|-2-2-2-2-2-2-2-2--3-3-3-3-3-3-3-3--|
Db|-0-0-0-0-0-0-0-0--1-1-1-1-1-1-1-1--|


Fill x8
Db|-----------------------|
Ab|-----------------------|
Fb|-----------------------|
Cb|-2-2-2-2-2-2-2-2--3-3--|
Gb|-2-2-2-2-2-2-2-2--3-3--|
Db|-0-0-0-0-0-0-0-0--1-1--|


Breakdown x12
Db|---------------------------------|
Ab|---------------------------------|
Fb|---------------------------------|
Cb|-2h3-3-3-3p2--2-2-2--2-2-2--2-2--|
Gb|-2h3-3-3-3p2--2-2-2--2-2-2--2-2--|
Db|-0h1-1-1-1p0--0-0-0--0-0-0--0-0--|
		 . .    . .    . .

Outro x4
Db|--------------|
Ab|--------------|
Fb|--------------|
Cb|-2h3-3-3-3p2--|
Gb|-2h3-3-3-3p2--|
Db|-0h1-1-1-1p0--|
Related for How Quickly We Forget tab