Song name
# A B C D E F G H I J K L M N O P Q R S T U V W X Y Z

Blacklisted - Nowhere Usa tab

p - pull off
/ - slide
. - palm mute

Full Step Down
Intro x1
D|--------------------------------|
A|--------------------------------|
F|-------------------5/7-8/7-5/4--|
C|-2-3-2-2--2-3-2-2--5/7-8/7-5/4--|
G|-2-3-2-2--2-3-2-2--3/5-6/5-3/2--|
D|-0-1-0-0--0-1-0-0---------------|

Verse x4
D|-------------------------------------------|
A|-------------------------------------------|
F|----------8-8-8-8-8--5-5-5-5-5-------------|
C|-2-2-2-2--8-8-8-8-8--5-5-5-5-5--8-8-8-5-5--|
G|-2-2-2-2--6-6-6-6-6--3-3-3-3-3--8-8-8-5-5--|
D|-0-0-0-0------------------------6-6-6-3-3--|

Chorus x2
D|----------------------------------------------------------------------------------|
A|----------------------------------------------------------------------------------|
F|-------------------------------------5-5--9-9-9-9----7/9-9-9-----------------5-5--|
C|-2-2-2-2-22--2-2-2-2-22--8-8-8-8-8-8-5-5--9-9-9-9-22-7/9-9-9-22--8-8-8-8-8-8-5-5--|
G|-2-2-2-2-22--2-2-2-2-22--8-8-8-8-8-8-3-3--7-7-7-7-22-5/7-7-7-22--8-8-8-8-8-8-3-3--|
D|-0-0-0-0-00--0-0-0-0-00--6-6-6-6-6-6--------------00---------00--6-6-6-6-6-6------|
           ..          ..                           ..         ..

Fill x1
D|----------------------|
A|----------------------|
F|------8-5-------------|
C|-2--2-8-5-8-5-6-3--2--|
G|-2--2-6-3-8-5-6-3--2--|
D|-0--0-----6-3-4-1--0--|

Breakdown x6
D|------------------------------------------------|
A|------------------------------------------------|
F|------------------------------5/7-8/7-5/4-9/----|
C|-2-2-2-2-2-2-2-3-3p2-2-2-2-2--5/7-8/7-5/4-9/2---|
G|-2-2-2-2-2-2-2-3-3p2-2-2-2-2--3/5-6/5-3/2-7/2---|
D|-0-0-0-0-0-0-0-1-1p0-0-0-0-0----------------0---|
   . . . . . . .       . . . .
Tap to rate this tab
# A B C D E F G H I J K L M N O P Q R S T U V W X Y Z