Guitaretab - guitar tabs
Song name
# A B C D E F G H I J K L M N O P Q R S T U V W X Y Z

Blacklisted - That Aint Real Much tab

. - palm mute
/ - slide
~ - let ring

Full Step Down
Verse x8 
D|------------------------|
A|------------------------|
F|------------------------|
C|-2-2--2-2-2-2--3/6-3/5--|
G|-2-2--2-2-2-2--3/6-3/5--|
D|-0-0--0-0-0-0--1/4-1/3--|
        . . . .

Fill x1
D|-------------|
A|-------------|
F|-------------|
C|-2~----------|
G|-2~--/7-/11--|Pickslide down, then up
D|-0~----------|


Breakdown
Guitar 1 x4
[ Tab from: http://www.guitaretab.com/b/blacklisted/97624.html ]
D|---------------------------------------------|
A|---------------------------------------------|
F|-----------------------9-7-9--10-9-7--9-7-9--|
C|-3-2-3--6-5-3--2-3-2---9-7-9--10-9-7--9-7-9--|
G|-3-2-3--6-5-3--2-3-2---7-5-7---8-7-5--7-5-7--|
D|-1-0-1--4-3-1--0-1-0-------------------------|
Guitar 2 x1 (then play the same as above twice)
D|-------------|
A|-------------|
F|-------------|
C|-2~----------|
G|-2~--/7-/11--|Pickslide down, then up
D|-0~----------|

Outro x1
D|-------------|
A|-------------|
F|-------------|
C|-2--5-3/5-2--|
G|-2--5-3/5-2--|
D|-0--3-1/3-0--|
     
Related for That Aint Real Much tab