Song name
# A B C D E F G H I J K L M N O P Q R S T U V W X Y Z

Blacklisted - My Advice tab

p - pull off
/ - slide

Full Step Down
Intro x1
D|----|
A|----|
F|----|
C|-2--|
G|-2--|
D|-0--|


Verse x4
D|-------------------------------------|
A|-------------------------------------|
F|-------------------------------------|
C|-2-2-2-2-3p2-2-2-2--5-5-5-5-6-6-3-3--|
G|-2-2-2-2-3p2-2-2-2--5-5-5-5-6-6-3-3--|
D|-0-0-0-0-1p0-0-0-0--3-3-3-3-4-4-1-1--|


Chorus 
Guitar 1 x4
D|---------------------|
A|---------------------|
F|---------------------|
C|-2-2-2--5-5-6-6-3-3--|
G|-2-2-2--5-5-6-6-3-3--|
D|-0-0-0--3-3-4-4-1-1--|
     .    .   .   . 
Guitar 2
D|----------------|
A|----------------|
F|-7--7--10-11-8--|
C|-7--7--10-11-8--|
G|-5--5---8--9-6--|
D|----------------|


Breakdown 4
D|------------------------------------------------------|
A|------------------------------------------------------|
F|------------------------------------------------------|
C|-2-2-2-2--2-2-3/5-2-2-5/6---2-2-2-2--2-2-3/5-2-2-6/5--|
G|-2-2-2-2--2-2-3/5-2-2-5/6---2-2-2-2--2-2-3/5-2-2-6/5--|
D|-0-0-0-0--0-0-1/3-0-0-3/4---0-0-0-0--0-0-1/3-0-0-4/3--|
     . .    . .     . .         . .    . .     . .
Tap to rate this tab
 
# A B C D E F G H I J K L M N O P Q R S T U V W X Y Z