Guitaretab - guitar tabs
Song name
# A B C D E F G H I J K L M N O P Q R S T U V W X Y Z

Blacklisted - Memory Layne tab

h - hammer on
p - pull off
/ - slide
. - palm mute

Parts of this may be off, I'll get around to fixing it later.

Intro x1
D|-----------------|
A|-----------------|
F|-----------------|
C|-6-2-5--2-3-5-2--|
G|-6-2-5--2-3-5-2--|
D|-4-0-3--0-1-3-0--|

Verse x4 (4th time play the second ending)
D|--------------------------|----------|----------|
A|--------------------------|----------|----------|
F|--------------------------|----------|----------|
C|-3p2-5/3-5/7-8/7--5-5-5-5-|-8/7-5/7--|-6-2-5-2--|
G|-3p2-5/3-5/7-8/7--5-5-5-5-|-8/7-5/7--|-6-2-5-2--|
D|-1p0-3/1-3/5-6/5--3-3-3-3-|-6/5-3/5--|-4-0-3-0--|
[ Tab from: http://www.guitaretab.com/b/blacklisted/97626.html ]
Chorus
D|---------7-----------------7-------7------------| x2
A|-5h6-5h6---6p5-----5h6-5h6---6p5-----6p5-6p5----|
F|---------------7-----------------7-----------7--|
C|------------------------------------------------|
G|------------------------------------------------|
D|------------------------------------------------|

D|---------------------------------------------------------| x1
A|---------------------------------------------------------|
F|--------------------------------9/-----------------------|
C|-2-2-2-2-2-2-2-2-2-2-2-2-2-2-2--9/-2-2-2-2-2-2-2--5-7-5--|
G|-2-2-2-2-2-2-2-2-2-2-2-2-2-2-2--7/-2-2-2-2-2-2-2--5-7-5--|
D|-0-0-0-0-0-0-0-0-0-0-0-0-0-0-0-----0-0-0-0-0-0-0--3-5-3--|
     . . . . . . . . . . . . . .     . . . . . . .  
	
Breakdown x4
D|------------------------|
A|------------------------|
F|-7/9-9-9----10----------|
C|-7/9-9-9-2--10-----5h7--|
G|-5/7-7-7-2--8--5h7------|
D|---------0--------------|
       . . 
D|-----------------------|----|
A|-----------------------|----|
F|-7/9-9-9----10---------|----|
C|-7/9-9-9-2--10--5-7-5--|-2--|
G|-5/7-7-7-2--8---5-7-5--|-2--|
D|---------0------3-5-3--|-0--|
       . .        
Related for Memory Layne tab