Song name
# A B C D E F G H I J K L M N O P Q R S T U V W X Y Z

Blacklistt - Home tab

Artist - Blacklistt
Album - Blacklistt
Tuning - Standard with capo 4th

Ibtro/Verse/Main riff
                                                                   D DDU
e|-----------------------------------------------------------------3-333----|
B|-------0h1---0h1p0-------------------------------1/3-0-3p0-------3-333----|
G|---2---------------2------4h5---4h5p4------------2/4-0-4p0-------4-444----|
D|-----2-----2-----------5-------------5-----2-----------------5---5-555----|
A|-0-------------------3---3----3--------------2-----------------5-5-555----|
E|-----------------------------------------0-----------------3-----3-333----|

Chorus                
 
  electric gtr and   Acoustic gtr     
  acoustic gtr       on c major chord
e|-0~--3~--0~--3~--|------------------|-----------------------------------|
B|-0~--3~--0~--3~--|-1/3-1/3-1/3-1/3p0|-----------------------------------|
G|-2~--5~--0~--4~--|-2/4-2/4-2/4-2/4p0|-----------------------------------|
D|-2~--5~--2~--5~--|------------------|-----------------------------------|
A|-0~--3~--2~--5~--|------------------|-----------------------------------|
E|-0~------0~--3~--|------------------|-----------------------------------|   
Bridge

e|-------------------------------------------|-------------|---------------|
B|-------------------------------------------|--1st-time---|---2nd-time----|
G|-4-4x-4-4x-4~--7-7x-7-7x-7~----------------|-------------|---------------|
D|-2-2x-2-2x-2~--5-5x-5-5x-5~--4-4x-4-4x--4~-|-7-7x-7-7x-7~|-77777777------|
A|-0-0x-0-0x-0~--3-3x-3-3x-3~--2-2x-2-2x--2~-|-5-5x-5-5x-5~|-55555555------|
E|-----------------------------0-0x-0-0x--0~-|-3-3x-3-3x-3~|-33333333------|

Final Chorus

   D UUD U UDU D UUD U UDU D UUD D UDU D UUD U UDU                        
e|-0-000-0-000-3-333-3-333-0-000-0-000-3-333-3-333-------------------------|
B|-0-000-0-000-3-333-3-333-0-000-0-000-3-333-3-333-------------------------|
G|-2-222-2-222-5-555-5-555-0-000-0-000-4-444-4-444-------------------------|
D|-2-222-2-222-5-555-5-555-2-222-2-222-5-555-5-555-------------------------|
A|-0-000-0-000-3-333-3-333-2-222-2-222-5-555-5-555-------------------------|
E|-0-000-0-000-------------0-000-0-000-3-333-3-333-------------------------|

Outro

                                                                   D
e|-----------------------------------------------------------------3~-----|
B|-------0h1---0h1p0-------------------------------1/3-0-3p0-------3~-----|
G|---2---------------2------4h5---4h5p4------------2/4-0-4p0-------4~-----|
D|-----2-----2-----------5-------------5-----2-----------------5---5~-----|
A|-0-------------------3---3----3--------------2-----------------5-5~-----|
E|-----------------------------------------0-----------------3-----3~-----|

Guitar Key

h = hammer on
p = pull of
~ = sustain
/ = slide
D = strum down
U = strum up

thnx leave any corrections in comments all done by ear 
:D
Tap to rate this tab
 
# A B C D E F G H I J K L M N O P Q R S T U V W X Y Z