Guitaretab - guitar tabs
Song name
# A B C D E F G H I J K L M N O P Q R S T U V W X Y Z

Blackmail - Today tab

-------------------------------------------------------------------------------
			     TODAY - Blackmail
-------------------------------------------------------------------------------
Tabbed by: gorrki1	
Email: julianprott@web.de

Tuning: C# G# C# F# A# D#


Intro: (muted)

e|---------------------------------------------------------------------------|
B|---------------------------------------------------------------------------|
G|11----11----11----11----11----11----11----11----11----11----11----11-------|
D|---12----12----12----12----12----12----12----12----12----12----12----12----|
A|---------------------------------------------------------------------------|
E|---------------------------------------------------------------------------|

e|---------------------------------------------------------------------------|
B|---------------------------------------------------------------------------|
G|11----11----11----11-------------------------------------------------------|
D|---12----12----12----12----------------------------------------------------| 
A|---------------------------------------------------------------------------|
E|---------------------------------------------------------------------------|
                                                                         1x

Verse 1:

e|---------------------------------------------------------------------------|
B|---------------------------------------------------------------------------|
G|11----11----11----11----11----11----11----11-------------------------------|
D|---12----12----12----12----12----12----12----12----------------------------|
A|---------------------------------------------------------------------------|
E|---------------------------------------------------------------------------|

e|---------------------------------------------------------------------------|
B|------------10----------------------10-------------------------------------|
G|11----11----------11----11----11----------11-------------------------------|
D|---11----11----------11----11----11----------11----------------------------|
A|---------------------------------------------------------------------------|
E|---------------------------------------------------------------------------|

e|---------------------------------------------------------------------------|
B|---------------------------------------------------------------------------|
G|9----9----9----9----9----9----9----9---------------------------------------|
D|--11---11---11---11---11---11---11---11------------------------------------|
A|---------------------------------------------------------------------------|
E|---------------------------------------------------------------------------|

e|---------------------------------------------------------------------------|
B|---------------------------------------------------------------------------|
G|11----11----11----11----11----11----11----11-------------------------------| 
D|---12----12----12----12----12----12----12----12----------------------------|
A|---------------------------------------------------------------------------|
E|---------------------------------------------------------------------------|
                                                                         2x
end on D|-7-|



Pre-Chorus:

e|---------------------------------------------------------------------------|
B|---------------------------------------------------------------------------|
G|11--11--11--11-12-11--11--11-12-11-12--11-11-12-11--11-12-11-12-11--------|
D|12--12--12--12-12-12--12--12-12-12-12--12--12-12-12--12-12-12-12-12--------|
A|---------------------------------------------------------------------------|
E|---------------------------------------------------------------------------|

e|---------------------------------------------------------------------------|
B|---------------------------------------------------------------------------|
G|11-12-11-12--11--11-12-11--11-12-11-12-11--11-12-11-12---------------------|
D|12-12-12-12--12--12-12-12--12-12-12-12-12--12-12-12-12---------------------|
A|---------------------------------------------------------------------------|
E|---------------------------------------------------------------------------|

e|---------------------------------------------------------------------------|
B|---------------------------------------------------------------------------|
G|11--11-12-11--11-12-11-12-11--11-12-11-------------------------------------| 
D|12--12-12-12--12-12-12-12-12--12-12-12-------------------------------------|
A|---------------------------------------------------------------------------|
E|---------------------------------------------------------------------------|
                                                                         1x

Verse 2:

e|---------------------------------------------------------------------------|
B|---------------------------------------------------------------------------|
G|11-11-11-11-11-11-11-11-11-11-11-11-11-11-11-11----------------------------|
D|12-12-12-12-12-12-12-12-12-12-12-12-12-12-12-12----------------------------|
A|---------------------------------------------------------------------------|
E|---------------------------------------------------------------------------|

e|---------------------------------------------------------------------------|
B|---------------------------------------------------------------------------|
G|11-11-11-11-11-11-11-11-11-11-11-11-11-11-11-11----------------------------|
D|11-11-11-11-11-11-11-11-11-11-11-11-11-11-11-11----------------------------|
A|---------------------------------------------------------------------------|
E|---------------------------------------------------------------------------|
[ Tab from: http://www.guitaretab.com/b/blackmail/142198.html ]
e|---------------------------------------------------------------------------|
B|---------------------------------------------------------------------------|
G|9--9--9--9--9--9--9--9--9--9--9--9--9--9--9--9-----------------------------|
D|11-11-11-11-11-11-11-11-11-11-11-11-11-11-11-11----------------------------|
A|---------------------------------------------------------------------------|
E|---------------------------------------------------------------------------|


e|---------------------------------------------------------------------------|
B|---------------------------------------------------------------------------|
G|11-11-11-11-11-11-11-11-12-12-12-12-14-14-14-14----------------------------|
D|12-12-12-12-12-12-12-12-12-12-12-12-12-12-12-12----------------------------| 
A|---------------------------------------------------------------------------|
E|---------------------------------------------------------------------------|
                                                                         2x

Then Pre-Chorus 1x


Chorus:

e|---------------------------------------------------------------------------|
B|---------------------------------------------------------------------------|
G|---------------------------------------------------------------------------|
D|9-9-9-9-9-9-9-9-9-9-9-9-9-9-9-9-7-7-7-7-7-7-7-7-7-7-7-7-7-7-7-7------------|
A|9-9-9-9-9-9-9-9-9-9-9-9-9-9-9-9-9-9-9-9-9-9-9-9-7-7-7-7-7-7-7-7------------|
E|9-9-9-9-9-9-9-9-9-9-9-9-9-9-9-9-7-7-7-7-7-7-7-7-7-7-7-7-7-7-7-7------------|

e|---------------------------------------------------------------------------|
B|---------------------------------------------------------------------------|
G|---------------------------------------------------------------------------| 
D|9-9-9-9-9-9-9-9-9-9-9-9-9-9-9-9-5-5-5-5-5-5-5-5-7-7-7-7-7-7-7-7------------|
A|7-7-7-7-7-7-7-7-7-7-7-7-7-7-7-7-5-5-5-5-5-5-5-5-5-5-5-5-5-5-5-5------------|
E|7-7-7-7-7-7-7-7-7-7-7-7-7-7-7-7-5-5-5-5-5-5-5-5-5-5-5-5-5-5-5-5------------|
                                                                        2x

Solo 1:

Guitar 1 (left pannel)
e|---------------------------------------------------------------------------|
B|---------------------------------------------------------------------------|
G|--9-9-9-7-7-6-4--9-9-9-7-7-6-4--9-9-9-7-7-6-4--9-9-9-7-7-6-6---------------|
D|---------------------------------------------------------------------------|
A|---------------------------------------------------------------------------|
E|---------------------------------------------------------------------------|

e|---------------------------------------------------------------------------|
B|---------------------------------------------------------------------------|
G|--4-4-6-6-7-7-9-9-13-13-9-9-11-11-0----------------------------------------| 
D|----------------------------------0----------------------------------------| 
A|---------------------------------------------------------------------------|
E|---------------------------------------------------------------------------|
                                                                       1x
Guitar 2 (right pannel)
e|---------------------------------------------------------------------------|
B|---------------------------------------------------------------------------|
G|--9-9-9-7-7-6-4--9-9-9-7-7-6-4--9-9-9-7-7-6-4--9-9-9-7-7-6-6---------------|
D|---------------------------------------------------------------------------|
A|---------------------------------------------------------------------------|
E|---------------------------------------------------------------------------|

e|---------------------------------------------------------------------------|
B|---------------------------------------------------------------------------|
G|--4---6---7---9---13----9---11----0----------------------------------------| 
D|----------------------------------0----------------------------------------|
A|---------------------------------------------------------------------------|
E|---------------------------------------------------------------------------|
                                                                       1x

Then: Verse 2  2x
         
      Pre-Chorus 1x

      Chorus 2x


Solo 2:

Guitar 1 (left pannel)
e|---------------------------------------------------------------------------|
B|---------------------------------------------------------------------------|
G|--9-9-9-7-7-6-4--9-9-9-7-7-6-4--9-9-9-7-7-6-4--9-9-9-7-7-6-4---------------|
D|---------------------------------------------------------------------------|
A|---------------------------------------------------------------------------|
E|---------------------------------------------------------------------------|

e|---------------------------------------------------------------------------|
B|---------------------------------------------------------------------------|
G|--9-9-9-7-7-9--7-7-9-9/11\9-7--7-7-7-7-7-7-7-7-7-7-7-7-7-4----------------| 
D|---------------------------------------------------------------------------|
A|---------------------------------------------------------------------------|
E|---------------------------------------------------------------------------|
                                                                       1x
Guitar 2 (right pannel)
e|---------------------------------------------------------------------------|
B|---------------------------------------------------------------------------|
G|--9-9-9-7-7-6-4--9-9-9-7-7-6-4--9-9-9-7-7-6-4-6-6-6-7-7-9-9---------------|
D|---------------------------------------------------------------------------|
A|---------------------------------------------------------------------------|
E|---------------------------------------------------------------------------|

e|---------------------------------------------------------------------------|
B|---------------------------------------------------------------------------|
G|--7-9/11-7-9/11-7-9/11-7-9/11-7/9--7/9-7/9--7/9-9/11-11/15----------| 
D|---------------------------------------------------------------------------|
A|---------------------------------------------------------------------------|
E|---------------------------------------------------------------------------|
                                                                       1x

Then: Chorus 2x

      Chorus with Solo 2  1x


End on:

e|----|
B|----|
G|----|
D|9---|
A|9---|
E|9---|




| /  slide up
| \  slide down
| h  hammer-on
| p  pull-off
| ~  vibrato
| +  harmonic
| x  Mute note
===============================================================================

Related for Today tab