Song name
# A B C D E F G H I J K L M N O P Q R S T U V W X Y Z

Blackmill - In The Night Of Wilderness tab

Blackmill
In The Night of Wilderness


( 1   2   3   4    1   2   3   4    1   2   3   4    1   2   3   4  - Takt)

E|----3-----3-----|----2-----2-----|----------------|----0-----0-----| 14x
d|----------------|----------------|----3-----3-----|----------------|
a|----------------|--0-----0-----0-|----------------|----------------|
g|--2-----2-----2-|----------------|--4-----4-----4-|--0-----0-----0-|
h|----------------|----------------|----------------|----------------|
e|----------------|----------------|----------------|----------------|

E|----3-----3-----|----5-----5-----|----------------|----0-----0-----|  1x
d|----------------|----------------|----3-----3-----|----------------|
a|----------------|--0-----0-----0-|----------------|----------------|
g|--2-----2-----2-|----------------|--4-----4-----4-|--0-----0-----0-|
h|----------------|----------------|----------------|----------------|
e|----------------|----------------|----------------|----------------|

E|----3-----3-----|----2-----2-----|----------------|----0-----0-----|  8x
d|----------------|----------------|----3-----3-----|----------------|
a|----------------|--0-----0-----0-|----------------|----------------|
g|--2-----2-----2-|----------------|--4-----4-----4-|--0-----0-----0-|
h|----------------|----------------|----------------|----------------|
e|----------------|----------------|----------------|----------------|

E|----3-----3-----|----5-----5-----|----------------|----0-----0-----|  1x
d|----------------|----------------|----3-----3-----|----------------|
a|----------------|--0-----0-----0-|----------------|----------------|
g|--2-----2-----2-|----------------|--4-----4-----4-|--0-----0-----0-|
h|----------------|----------------|----------------|----------------|
e|----------------|----------------|----------------|----------------|

E|----3-----3-----|----2-----2-----|----------------|----0-----0-----|  8x
d|----------------|----------------|----3-----3-----|----------------|
a|----------------|--0-----0-----0-|----------------|----------------|
g|--2-----2-----2-|----------------|--4-----4-----4-|--0-----0-----0-|
h|----------------|----------------|----------------|----------------|
e|----------------|----------------|----------------|----------------|

E|3-2---3-2---3-2-|3-2---3-2---5-0-|3-2---3-2---3-2-|3-2---3-2---5---|  4x
d|----3-----3-----|----3-----3-----|----3-----3-----|----3-----3---3-|
a|----------------|----------------|----------------|----------------|
g|----------------|----------------|----------------|----------------|
h|----------------|----------------|----------------|----------------|
e|----------------|----------------|----------------|----------------|

E|----3-----3-----|----2-----2-----|----------------|----0-----0-----|  9x
d|----------------|----------------|----3-----3-----|----------------|
a|----------------|--0-----0-----0-|----------------|----------------|
g|--2-----2-----2-|----------------|--4-----4-----4-|--0-----0-----0-|
h|----------------|----------------|----------------|----------------|
e|----------------|----------------|----------------|----------------|

E|----3-----3-----|----5-----5-----|----------------|----0-----0-----|  1x
d|----------------|----------------|----3-----3-----|----------------|
a|----------------|--0-----0-----0-|----------------|----------------|
g|--2-----2-----2-|----------------|--4-----4-----4-|--0-----0-----0-|
h|----------------|----------------|----------------|----------------|
e|----------------|----------------|----------------|----------------|

by Bobby Zuber - Haver Fun
Tap to rate this tab
 
# A B C D E F G H I J K L M N O P Q R S T U V W X Y Z