Song name
# A B C D E F G H I J K L M N O P Q R S T U V W X Y Z

Blackmill - The Drift tab

Here is the Tab for the Main Solo in the song "The Drift", You hear it throughout the whole song.
Standard Tuning.

---------9--12--11--12----12--11--12--14--11--12--11----------|
-------9----------------9-------------------------------------|
-----6--------------------------------------------------------|
---6----------------------------------------------------------|
-4------------------------------------------------------------|
--------------------------------------------------------------|

----------9--12--11--12--9--12--11--12--14--12--11--14--------|
--------9-----------------------------------------------------|
-----9--------------------------------------------------------|
---9----------------------------------------------------------|
-7------------------------------------------------------------|
--------------------------------------------------------------|

---------9--12--14--11--12--11--9--12--11--12--12--9--11------|
--------------------------------------------------------------|
------11------------------------------------------------------|
---11---------------------------------------------------------|
-9------------------------------------------------------------|
--------------------------------------------------------------|

-12--11--12--9--12--11--12--14--16--12--14--12--16--19--21--16|
-10-----------------------------12--------------14------------|
--------------------------------------------------------------|
-7-------------------------------9--------------11------------|
--------------------------------------------------------------|
--------------------------------------------------------------|
Tap to rate this tab
# A B C D E F G H I J K L M N O P Q R S T U V W X Y Z