Song name
# A B C D E F G H I J K L M N O P Q R S T U V W X Y Z

Blackmill - As Time Goes By tab

-------------------------------------------------------------------------------
                           As Time Goes By  Blackmill
-------------------------------------------------------------------------------
Tabbed by: Alexander Sergeichuk
E-mail: zergo.am@gmail.com

Tuning: standard


e|-----4-----4-----4-----4-----2-----2-----2-----2-|
B|-------------------------------------------------|
G|---4-----4-----4-----4-----4-----4-----4-----4---|
D|-2-----2-----2-----2-----2-----2-----2-----2-----|
A|-------------------------------------------------|
E|-------------------------------------------------|



e|-----2-----2-----2-----2-----4-----4-----2-----2-|
B|-------------------------------------------------|
G|---4-----4-----4-----4-----4-----4-----4-----4---|
D|-------------------------------------------------|
A|-2-----2-----2-----2-----2-----2-----2-----2-----|
E|-------------------------------------------------|


e|-----0-----0-----0-----0-----2-----2-|
B|-------------------------------------|
G|---4-----4-----4-----4-----4-----4---|
D|-------------------------------------|
A|-4-----4-----4-----4-----4-----4-----|
E|-------------------------------------|


e|-----4-----4-----4-----4-----4-----2-----2-----2-----2-|--2h4p2-|
B|-------------------------------------------------------|--------|
G|---4-----4-----4-----4-----4-----4-----4-----4-----4---|--------|
D|-------------------------------------------------------|--------|
A|-0-----0-----0-----0-----0-----2-----2-----2-----2-----|--------|
E|-------------------------------------------------------|--------|
                                                         |play this ending on 1st and 
2nd time


Play 3 times, on 2nd and 3rd time start playing with


e|-----4------4-|
B|--5-----------|  (just add note on 5th fret right after you play D string)
G|---4------4---|
D|-2------2-----|
A|--------------|
E|--------------|


Outro:

e|---0-----2-----4-----2-----0-|
B|--------------------------0--|
G|--2-----4-----6--------------|
D|-2-----4-----6-----------2---|
A|-----------------------------|
E|-----------------------------|
Tap to rate this tab
 
# A B C D E F G H I J K L M N O P Q R S T U V W X Y Z