Guitaretab - guitar tabs
Song name
# A B C D E F G H I J K L M N O P Q R S T U V W X Y Z

Blackmores Night - Just Call My Name Ill Be There tab

                                                        Artist: Blackmore's Night
                                                Song: Just Call My Name (I'll Be There)
                                                         Album: Village Lantern

Intro/Interlude Riff
|--------------------------------------------------|
|--------------------------------------------------|
|----------------------7--9--9qb--9--7--9p7--------|
|--9---9-9--7--9----9------------------------------|
|--9---9-9--7--9-----------------------------------|
|--7---7-7--5--7-----------------------------------|
                   (qb=quarter bend)

|--------------------------7--10qb-10qb--7---------|
|-------------------7--10--------------------------|
|--------------------------------------------------|
|--9---9-9--7--9-----------------------------------|
|--9---9-9--7--9-----------------------------------|
|--7---7-7--5--7-----------------------------------|


Verse Riff With Fill
|-------------------|
|-------------------|
|-------------------| x3
|--9---9-9--7--9----|
|--9---9-9--7--9----|
|--7---7-7--5--7----|
[ Tab from: http://www.guitaretab.com/b/blackmores-night/114919.html ]
|--------------------------------------------------------------|
|-----------------------7h8p7---7-----------7------------------|
|-----------------------------9---9-7-9-6h7---7-6--------------|
|--9---7---9---4-----------------------------------9-8---------|
|--9---7---9---4---------------------------------------9-------|
|--7---5---7---2-----------------------------------------------|


Verse Riff
|-------------------|
|-------------------|
|-------------------| x3
|--9---9-9--7--9----|
|--9---9-9--7--9----|
|--7---7-7--5--7----|

|-------------------|
|-------------------|
|-------------------|
|--9---7---9---4----|
|--9---7---9---4----|
|--7---5---7---2----|


Chorus
|-------------------------|
|-------------------------|
|-------7--9--------7-----| x2
|-9--5--7--9--9--5--7--7--|
|-9--5--5--7--9--5--5--7--|
|-7--3--------7--3-----5--|


Intro/Interlude Riff

Verse Riff

Chorus


Riff Before and Under Solo
|----------------------------------|
|----------------------------------|
|--9-----9-----12--7--9--11--------| x2
|--9--9--9--9--12--7--9--11--------|
|--7--9--7--9--10--5--7--9---------|
|-----7-----7----------------------|


(Solo)*

Verse Riff

Repeat Chorus to the end.......


*I was too lazy to tab the solo, but you can try to do it ;) (and maybe also the fills 
choruses)
Related for Just Call My Name Ill Be There tab
Advertisement will be closed in 10 seconds