Song name
# A B C D E F G H I J K L M N O P Q R S T U V W X Y Z

Blackmores Night - Home Again tab

-----------------------------------------------------------------
Blackmore’s Night – Home Again (intro)
-----------------------------------------------------------------
Tabbed by: Justinas Žilys
Email: unizmatum@gmail.com

Tuning: standard

e|---------------------------------------------------------------|
B|--8-11-10h11p8--------8----------------------------------------|
G|---------------10-8-7---10-8-7-----8-7-------------------------|
D|--------------------------------10-----10-8-7--8-7h8p7---------|
A|-------------------------------------------------------10------|
E|---------------------------------------------------------------|


 
| / slide up
| \ slide down
| h hammer-on
| p pull-off
| ~ vibrato
| + harmonic
| x Mute note
Tap to rate this tab
# A B C D E F G H I J K L M N O P Q R S T U V W X Y Z