Song name
# A B C D E F G H I J K L M N O P Q R S T U V W X Y Z

Blackmores Night - Vagabond Make A Princess Of Me tab

Artist: Blackmore's Night
Song  : Vagabond (Make A Princess of Me)
Album : Autumn Sky (2010)

Intro

|--------------------------------2~~-----------------------------------|
|-----2-3--2tr3-----------3-5---3-------5-5-5-5-5~~--3-2-3--2h3p2------|
|---4-----------4--2-----2-----2-------4----------------------------4--|
|--4--------------------0-----0-------2----------------------------4---|
|-2---------------------------------------------------------------2----|
|----------------------------------------------------------------------|

|-----------------------------------2-2~~----------------------------------|
|---------2-3--2tr3----------3-5---3-3-----5-5-5-5-5~~-3-3-2-3--2h3p2------|
|---4-4-4-----------4--2----2-----2-------4-----------------------------4--|
|--4-----------------------0-----0-------2-----------------------------4---|
|-2-------------------------------------------------------------------2----|
|--------------------------------------------------------------------------|

|------7-5-7-------------------------0---------------------------------|
|------------5~~--5-5-7-8~~----8----2----3-2-3-2h3p2-------------------|
|----------------------------------2-------------------4---------------|
|---------------------------------2-------------------4----------------|
|-2------------------------------0-------------------2-----------------|
|----------------------------------------------------------------------|

|-----------------------------------2-2~~----------------------------------|
|---------2-3--2tr3----------3-5---3-3-----5-5-5-5-5~~-3-3-2-3--2h3p2------|
|---4-4-4-----------4--2----2-----2-------4-----------------------------4--|
|--4-----------------------0-----0-------2-----------------------------4---|
|-2-------------------------------------------------------------------2----|
|--------------------------------------------------------------------------|

Verse : chords progression - Bm-D-A-Bm (x2)
Chorus: chords progression - D-A-Em-Bm
Outro : chords progression - Bm-D-A-Bm
Tap to rate this tab
# A B C D E F G H I J K L M N O P Q R S T U V W X Y Z