Song name
# A B C D E F G H I J K L M N O P Q R S T U V W X Y Z

Blackmores Night - Village On The Sand tab

All it basically is is this, but I thought I'd post it as it frustrated me to find it...

|-----------------------------|-----------------|
|-----------------------------|-----------------|
|-----------------------------|-----------------|
|-------0---------------------|-------0---------|
|-0-2-3----2-0----0-2-0----0--|-0-2-3---2-0---0-|
|---------------3--------3----|-------------3---|


|-----------------------------|-----------------|
|-----------------------------|-----------------|
|-----------------------------|-------------0-2-|
|-------0---------------------|-------0-0-2-----|
|-0-2-3----2-0----0-2-0----0--|-0-2-3-----------|
|---------------3--------3----|-----------------|

PS blackmore's night are amazing!
Tap to rate this tab
# A B C D E F G H I J K L M N O P Q R S T U V W X Y Z