Song name
# A B C D E F G H I J K L M N O P Q R S T U V W X Y Z

Blackmores Night - Magical World tab

Blackmore's Night - Magical World Solo
Guitar Tab
Tabbed by: Anton Kallio (Username: Aczi)

Standard Tuning (EADGBe)


e---9--5-------5--7--4h7p4-----------------------------------|
B---------7-----------------5--------------------------------|
G-----------6-----------------4---------------7-----9/11--9--|
D--------------------------------6---------7-----7-----------|
A----------------------------------7/9--9--------------------|
E------------------------------------------------------------|

Try learning the first part first and it'll be a lot easier :)

e-----------------------------------------------------------|
B--------------------------------------------------------5--|
G---7--6-----7--6-----6-----------6----4--------------4-----|
D---------7--------7-----7-----7----------7--6-----6--------|
A---------------------------7-------------------7-----------|
E-----------------------------------------------------------|

If you have anything to say or fix just inform me ;)
Tap to rate this tab
# A B C D E F G H I J K L M N O P Q R S T U V W X Y Z