Song name
# A B C D E F G H I J K L M N O P Q R S T U V W X Y Z

Blake Shelton - Home tab

-----------------------------------------------------------------------------
			     Home - Blake Shelton
-----------------------------------------------------------------------------

I'm not entirely sure this is the correct way to play it, but it sounds good to me.
The other tab for this intro confused me so I thought I would show the way I figured
out how to play it. 

Tabbed by: David "Gitrdone92"

Tuning:
    D/G        D/F#         Em           Cadd9           G   D  then back
                                                             to D/G to repeat
e|--------------------------0-------------0--------------3---------------|
B|--------------------------0-------------3--------------3---------------|
G|-----2h4-2------0h2-2-----0-----0-------0----0h2p0-0---0----2-2h4-2-0-0|
D|---0-0-0-0----0-0-0-0-----2--0h4-4-0----2---0-----0----0---0--0-0-0-0--|
A|-------------------------2------------3----------------2---------------|
E|-3----------2-----------0----------------------------3---------------0-|

   ^          ^
   |          |
I hold these 2 notes with my thumb.

D/G is a regular D with a G note on the low E string 3rd fret.
D/F# is the same thing except with an F# note on the low E string 2nd fret.

************************************

| /   slide up
| \   slide down
| h   hammer-on
| p   pull-off
| ~   vibrato
| +   harmonic
| x   Mute note
| b   Bend
| pb  Pre-bend
| br  Bend release
| pbr Pre-bend release
| brb Bend release bend

************************************
Tap to rate this tab
# A B C D E F G H I J K L M N O P Q R S T U V W X Y Z