Song name
# A B C D E F G H I J K L M N O P Q R S T U V W X Y Z

Blake Shelton - Sure Be Cool If You Did tab

Blake Shelton - Sure Be Cool if You Did
Standard Tuning
Capo 4th fret

Haven't seen a tab with the intro and stuff so here is what I hear. I also looked at a 
video of Blake playing and this is what I could get out of it. Cheers!

Intro Riff (x2)

e|------------------------------3--3---------2h3p2--------------------------|
B|------------------------------3--3---------3------------------------------|
G|-------0----------0-----------0--0---------2------------------------------|
D|---------0------2-------------2--2---------0------------------------------|
A|--0h2------2--3------2b-------3--3---------x------------------------------|
E|------------------------------x--x---------x------------------------------|


                     G                     Cadd9             D
I was gonna keep it real like chill like only have a drink or two
e|-----------------------3----------------------3-------------3--3-----2-----|
B|-----------------------3----------------------3-------------3--3-----3-----|
G|-----------------------0----------------------0-------------2--2-----2-----|
D|-------------------0----------------------0-----------------0--0-----0-----|
A|-------------------0h2--------------------2h3---------------x--x-----x-----|
E|------------------------------------------------------------x--x-----x-----|
       G                        Cadd9                        D
But it turned into a party when I started talking to you
e|-----------------------3----------------------3-------------3--3-----2-----|
B|-----------------------3----------------------3-------------3--3-----3-----|
G|-----------------------0----------------------0-------------2--2-----2-----|
D|-------------------0----------------------0-----------------0--0-----0-----|
A|-------------------0h2--------------------2h3---------------x--x-----x-----|
E|------------------------------------------------------------x--x-----x-----|
  Cadd9                 D             Em                           G
  Now you're standing    in the neon looking like a high I wanna be on
  Cadd9                 D
  Baby it's your call,    no pressure at all


                  Cadd9                         G
You don't have to throw back your pretty pink lemonade shooter
    D
And lean a little closer
                  Cadd9                 G                       D
You don't have to keep on smiling that smile that's driving me wild
D
And when the night is almost over
Cadd9                      G                   D
Meet me in the middle of a moonlit Chevy bench seat
D                      Em      G             Cadd9
And do a little bit of country song, hanging on
Cadd9               G                    D
You don't have to keep me falling like this
D                             Cadd9
But it'd sure be cool if you did

G (hammer 2 on A string)     D



          G                          Cadd9                   D
You can't shoot me down cause you've already knocked me dead
e|-----------------------3----------------------3-------------3--3-----2-----|
B|-----------------------3----------------------3-------------3--3-----3-----|
G|-----------------------0----------------------0-------------2--2-----2-----|
D|-------------------0----------------------0-----------------0--0-----0-----|
A|-------------------0h2--------------------2h3---------------x--x-----x-----|
E|------------------------------------------------------------x--x-----x-----|
       G                      Cadd9                      D
Got me falling apart with my heart talking out of my head
e|-----------------------3----------------------3-------------3--3-----2-----|
B|-----------------------3----------------------3-------------3--3-----3-----|
G|-----------------------0----------------------0-------------2--2-----2-----|
D|-------------------0----------------------0-----------------0--0-----0-----|
A|-------------------0h2--------------------2h3---------------x--x-----x-----|
E|------------------------------------------------------------x--x-----x-----|
C                    D                   Em                   G
  Let your mind take    a little back road just as far as you wanna go
      Cadd9                  D
Baby, I'll do, whatever you wanna do, wanna do


                  Cadd9                        G
You don't have to throw back your pretty pink lemonade shooter
    D
And lean a little closer
                  Cadd9                 G                       D
You don't have to keep on smiling that smile that's driving me wild
D
And when the night is almost over
Cadd9                      G                   D
Meet me in the middle of a moonlit Chevy bench seat
D                      Em      G                C
And do a little bit of country song, hanging on
C                 G                    D
You don't have to keep me falling like this
D                                 Cadd9 G D
But it'd sure be cool if you did

Solo

D                                 Cadd9 G   D
Have a night that you'll never forget

Cadd9                     D             Em                         G    Cadd9
 And now you're standing, in the neon looking like a high I wanna be on


                  Cadd9                        G
You don't have to throw back your pretty pink lemonade shooter
    D
And lean a little closer
                  Cadd9                 G                       D
You don't have to keep on smiling that smile that's driving me wild
D
And when the night is almost over
Cadd9                       G                   D
Meet me in the middle of a moonlit Chevy bench seat
D                      Em      G             Cadd9
And do a little bit of country song, hanging on
Cadd9               G                  D
You don't have to keep me falling like this
D                           Cadd9   G   D
But it'd sure be cool if you did
D                            G
Yeah it'd sure be cool if you did

Outro x2
e|------------------------------3--3---------2h3p2--------------------------|
B|------------------------------3--3---------3------------------------------|
G|-------0----------0-----------0--0---------2------------------------------|
D|---------0------2-------------2--2---------0------------------------------|
A|--0h2------2--3------2b-------3--3---------x------------------------------|
E|------------------------------x--x---------x------------------------------|

Chords Used
   Cadd9  G   Em   D*
e|--3-----3---3----2------------|
B|--3-----3---3----3------------|
G|--0-----0---0----2------------|
D|--2-----0---2----0------------|
A|--3-----2---2----x------------|
E|--x-----3---0----x------------|

For the D chord you can hammer and pull off e string between the 2nd and 3rd frets.
Tap to rate this tab
# A B C D E F G H I J K L M N O P Q R S T U V W X Y Z