Guitaretab - guitar tabs
Song name
# A B C D E F G H I J K L M N O P Q R S T U V W X Y Z

Blanche - Whos To Say tab

 Tab Definitions:
  A: x02220
  G: 320003
  C: x32010
  D: xx0232
  A/C: x32220 (only the bass note is played)
  A5: x022xx
  G5: 533xxx
  C5: x355xx (each note strummed as in the INTRO)
  D5: x577xx (same as C5)
  F: 133211
  E: 022100
  /: Slide to note

 Tuning: Standard (EADGBe)

alright? here we go:

INTRO: Played 4x
   A         G         A         C    D
e|--------------------------------------------|
B|-----------------------------------------3--|
G|------2-----------0-------2--------0---2----|
D|----2---2-------0-------2---2----2---0------|
A|-0------------2------0---------3------------|
E|-----------3--------------------------------|

the D C D C A/C A part:

    D         C           D         C           A/C
e|-----------------------------------------------------|
B|-------3-------------1-------3-------------1---------|
G|-----2---2--------0--------2---2--------0------------|
D|--0------------2--------0------------2----------2----|
A|------------3---------------------3-----------3---3--|
E|-----------------------------------------------------|
[ Tab from: http://www.guitaretab.com/b/blanche/164364.html ]
VERSE 1:
A        G        A     C     D A
Who's to say that I'm unhappy
               G      A     C D A
'Cause I don't really smile
         G       A         C      D A
Sittin', hopin', dreamin', waitin'
       G       A    C D
For my ship to sail
         D        C         D      C
Who's to say this time I've wasted
        D         C     A/C  A
Someday won't get used
      G      A           C D A
Maybe if you come around
              G     A
I'll start to get enthused

BRIDGE:
  C D      D D  C C
Who's to say
         A
Who's to say


BREAK: Played 4x
A5  A5 A5 A5  G5  G5 G5 G5  A5  A5 A5 A5  C5 D5

D5 D5   C5 C5

   F         G
e|----------------------|
B|----------------------|
G|-------------------0--|
D|------3----------0----|
A|----3---3------2------|
E|-1---------/3---------|


VERSE 2:
Played 2x: (and applied to the first two lines of next verse)
   A         G         A         C
e|-------------------------------------------|
B|-------------------------------------------|
G|------2-----------0-------2--------0----0--|
D|----2---2-------0-------2---2----2---/4----|
A|-0------------2------0---------3-----------|
E|-----------3-------------------------------|

Who's to say that I'm obsessed
With everything you do
Just because it seems my schedule
Seems to shadow you
Who's to say that tired cliché is
More fish in the sea
And I don't mind treading water
'Cause you're the one for me

CHORUS:
D               A
You say that by now
         E                 A
I should know you'll never love me
    D                 A
But who's to say that what has never
C         D     A
Been will never be
         C         D     A
What has been will never be

BREAK

VERSE 3:
Who's to say in time I wouldn't
Learn how to relax
You'd forget about my clammy
Hands and my nervous laugh
Who's to say the way you look at
Him is truly love
Maybe they should realize
I fit you like a glove

CHORUS

BREAK

A


Thats it. hope you enjoy this one
feel free to comment.