Song name
# A B C D E F G H I J K L M N O P Q R S T U V W X Y Z

Blank Dogs - Tin Birds tab

Blank Dogs - Tin Birds
From their album "Under and Under" (In The Red Recordings 2009).

Tabbed by Isaac Murguia, November 11, 2013.
Originally uploaded to Ultimate-Guitar.com
YouTube: Goadiroth

INTRO A:
  Guitar 1
e|------------------|---------------------------|
B|------------------|---------------------------|
G|------------------|---------------------------|
D|------------------|---------------------------|
A|-9h10-9---7--9--7-|--5--------7-5-9---10-9----|
E|------------------|---------------------------|
  Guitar 2
e|------------------|---------------------------|
B|------------------|-/8----10--8-7-5---7--5--7-|
G|------------------|---------------------------|
D|------------------|---------------------------|
A|------------------|---------------------------|
E|------------------|---------------------------|

INTRO B:
  Guitar 1
         [x2]
e|-------------------|-------------------|-----------------------------|
B|-7-7-7777-5555-555-|-8-8-8888-7777-777-|-10-10--10-10-10-10-7777-777-|
G|-------------------|-------------------|-----------------------------|
D|-------------------|-------------------|-----------------------------|
A|-------------------|-------------------|-----------------------------|
E|-------------------|-------------------|-----------------------------| [x2]
  Guitar 2
         [x2]
e|-------------------|-------------------|-----------------------------|
B|-------------------|-------------------|-----------------------------|
G|-6--------------7--|-6--------4--------|-2---------------------------|
D|-------------------|-------------------|-----------------------------|
A|-------------------|-------------------|-----------------------------|
E|-------------------|-------------------|-----------------------------| [x2]

VERSE A:
  Guitar 1
         [x2]
e|-------------------|-------------------|-----------------------------|
B|-7-7-7777-5555-555-|-8-8-8888-7777-777-|-10-10--10-10-10-10-7777-777-|
G|-------------------|-------------------|-----------------------------|
D|-------------------|-------------------|-----------------------------|
A|-------------------|-------------------|-----------------------------|
E|-------------------|-------------------|-----------------------------|
         [x3]
e|-------------------|---------------------|
B|-8-8-8888-7777-777-|-8-8-888-10-8-7--8-8-|
G|-------------------|---------------------|
D|-------------------|---------------------|
A|-------------------|---------------------|
E|-------------------|---------------------|
  Guitar 2
e|---------------|---------------|--------------|-------------|
B|---5-----------|---5-----------|---5--5--555--|-------------|
G|-7----7-6--777-|-7----7-6--777-|-7----------7-|-7-6--6-7--6-|
D|---------------|---------------|--------------|-------------|
A|---------------|---------------|--------------|-------------|
E|---------------|---------------|--------------|-------------|

e|--------------|--------------|----------|
B|---5----------|---5----------|----------|
G|-7---7--6--77-|-7---7--6--77-|-7-7-7776-|
D|--------------|--------------|----------|
A|--------------|--------------|----------|
E|--------------|--------------|----------|
 
PRE-CHORUS:
  Guitar 1
        [x3]
e|-----------------|-------------------|
B|-----------------|-------------------|
G|---6-7-----6--77-|---6-7--9-9-7-7-6--|
D|-7-------7-------|-7-----------------|
A|-----------------|-------------------|
E|-----------------|-------------------|
  Guitar 2
e|----------------------------------|---------------------------------|
B|----------------------------------|---------------------------------|
G|-6-6-666-6666-66--7-7-777-7777-77-|-9-9-99999999-9999-9-99999999-99-|
D|-x-x-xxx-xxxx-xx--x-x-xxx-xxxx-xx-|-x-x-xxxxxxxx-xxxx-x-xxxxxxxx-xx-|
A|-4-4-444-4444-44--5-5-555-5555-55-|-7-7-77777777-7777-7-77777777-77-|
E|----------------------------------|---------------------------------|

CHORUS: "your tin bird..."
e|---------------------------------|
B|---------------------------------|
G|-------99------------------------|
D|-77777----9-11-11-11-11-11-11-11-|
A|---------------------------------|
E|---------------------------------| [x4]

VERSE B:
  Guitar 1
         [x2]
e|------------------|------------------|-----------------------------------|
B|-7-7-777-7777-555-|-8-8-888-8888-777-|-10-10--10-10-10--10-10-10-10--6h7-|
G|------------------|------------------|-----------------------------------|
D|------------------|------------------|-----------------------------------|
A|------------------|------------------|-----------------------------------|
E|------------------|------------------|-----------------------------------|
         [x2]
e|------------------|------------------|--------------------------------------|
B|-7-7-777-7777-555-|-8-8-888-8888-777-|-10-10--10-10-10-10--10-10-10-10--6-7-|
G|------------------|------------------|--------------------------------------|
D|------------------|------------------|--------------------------------------|
A|------------------|------------------|--------------------------------------|
E|------------------|------------------|--------------------------------------|
  Guitar 2
e|------------------------|-------------------------|
B|------------------------|-------------------------|
G|-7--6---7--6---9--7---6-|-7----6----4---6--7-6--4-|
D|------------------------|-------------------------|
A|------------------------|-------------------------|
E|------------------------|-------------------------|

PRE-CHORUS B:
  Guitar 1
e|------------------------------|----------------------------|
B|------------------------------|----------------------------|
G|---6-7----6-7----6-7-99-7-6-7-|---6-7----6-7----6-7-97-6-7-|
D|-7------7------7--------------|-7------7------7------------|
A|------------------------------|----------------------------|
E|------------------------------|----------------------------|
  Guitar 2
e|----------------------------------|---------------------------------|
B|----------------------------------|---------------------------------|
G|-6-6-666-6666-66--7-7-777-7777-77-|-9-9-99999999-9999-9-99999999-99-|
D|-x-x-xxx-xxxx-xx--x-x-xxx-xxxx-xx-|-x-x-xxxxxxxx-xxxx-x-xxxxxxxx-xx-|
A|-4-4-444-4444-44--5-5-555-5555-55-|-7-7-77777777-7777-7-77777777-77-|
E|----------------------------------|---------------------------------|

Repeat CHORUS [x4]

BRIDGE:
e|------------------------------------|
B|------------------------------------|
G|-4-4-444-4444-44/6-6-6-666-6666-66x-|
D|-4-4-444-4444-44/6-6-6-666-6666-66x-|
A|-2-2-222-2222-22/4-4-4-444-4444-44x-|
E|------------------------------------| [x2]

VERSE C:
  Guitar 1
        [x2]
e|------------------|------------------|----------------------------|
B|-7-7-777-7777-555-|-8-8-888-8888-777-|-10-10--10-10-10--10-8--7-8-|
G|------------------|------------------|----------------------------|
D|------------------|------------------|----------------------------|
A|------------------|------------------|----------------------------|
E|------------------|------------------|----------------------------|
        [x2]
e|------------------|------------------------------------|
B|-7-7-777-7777-555-|-T-T-TTTT-TTTT-TTT-TTTTTT-TTT-887-5-| T = 10th fret
G|------------------|------------------------------------|     just to save space :)
D|------------------|------------------------------------|
A|------------------|------------------------------------|
E|------------------|------------------------------------|
  Guitar 2
e|------------------|-------------------|-----------------|------------------|
B|------------------|-------------------|-----------------|------------------|
G|------------------|-6-6-6666-7777-777-|-9-9-9999-97-6-7-|-76-6666-6669-7-6-|
D|-7-7-7777-9-99-99-|-------------------|-----------------|------------------|
A|------------------|-------------------|-----------------|------------------|
E|------------------|-------------------|-----------------|------------------|

e|-------------------|-------------------|------------------------------------|
B|-------------7-777-|-7-7-7777-8887-777-|-T-T-TTTT-TTTT-TTT-TTTTTT-TTT-887-5-| T = 10th fret
G|-6-6-666-7-9-------|-------------------|------------------------------------|
D|-------------------|-------------------|------------------------------------|
A|-------------------|-------------------|------------------------------------|
E|-------------------|-------------------|------------------------------------|

PRE-CHORUS C:
  Guitar 1
e|----------------------------|----------------------------|
B|----------------------------|----------------------------|
G|---6-7----6-7----6-7--7-9-7-|---6-7----6-7----6-7-97-6-7-|
D|-7------7------7------------|-7------7------7------------|
A|----------------------------|----------------------------|
E|----------------------------|----------------------------|
  Guitar 2
e|----------------------------------|---------------------------------|
B|----------------------------------|---------------------------------|
G|-6-6-666-6666-66--7-7-777-7777-77-|-9-9-99999999-9999-9-99999999-99-|
D|-x-x-xxx-xxxx-xx--x-x-xxx-xxxx-xx-|-x-x-xxxxxxxx-xxxx-x-xxxxxxxx-xx-|
A|-4-4-444-4444-44--5-5-555-5555-55-|-7-7-77777777-7777-7-77777777-77-|
E|----------------------------------|---------------------------------|

Repeat CHORUS [x8]

CHORDS FOR CHORUS (IF YOU WANT):
e|---------------------------------|
B|---------------------------------|
G|-------99------------------------|
D|-77777-99-9-11-11-11-11-11-11-11-|
A|-77777-77-9-11-11-11-11-11-11-11-|
E|-55555----7-9--9--9--9--9--9--9--|

End. Please rate! :)
Tap to rate this tab
 
# A B C D E F G H I J K L M N O P Q R S T U V W X Y Z