Song name
# A B C D E F G H I J K L M N O P Q R S T U V W X Y Z

Blank Of Hope - Rocks And tab

> written by Alexander Mattias
> Artist:Blank of Hope
> Song:Rocks And...
>
> Intro:e-------------------------|
>       b-------------------------|
>       g-------------------------|
>       D-1-2-4-4-2-1-1-2-4-4-2-1-|x2
>       A-------------------------|
>       E-------------------------|
>
> Verse:e-------------------------|
>       b-------------------------|
>       g-------------------------|
>       D-4444-4444---------------|x2
>       A-2222-2222-2222-4444-----|
>       E-----------0000-2222-----|
>
> Pre:e------------------------|
>     b------------------------|
>     g------------------------|
>     D------------------------|x2
>     A-6666-4444-2222-4444----|
>     E-4444-2222-0000-2222----|
>
> Chorus:e----------------------------------------------|
>        b----------------------------------------------|
>        g----------------------------------------------|
>        D------9999-4444-----------9999-4444-1111111---|x2
>        A-6666-7777-2222-4444-6666-7777-2222-9-9-9-9---|
>        E-4444-----------2222-4444---------------------|
>
> Bridge:e--------------------------------------------------------|
>        b-----0-----0-----0-----0--------------------------------|
>        g-----------------------------4-------4-------4-----4----|
>        D---1-----1-----2-----2-----4---4---4---4---4-----4------|x2
>        A-2-----2-----2-----2------------------------------------|
>        E-------------------------4-------4-------0-----0--------|
>
> Pick slide
>           4
> Finish on 2
>
>
>
Tap to rate this tab
# A B C D E F G H I J K L M N O P Q R S T U V W X Y Z