Song name
# A B C D E F G H I J K L M N O P Q R S T U V W X Y Z

Blank Stare - Suicide tab

Tune to Drop D

* - Palm Muted

Part 1

E ---------------------------------------------------------|
B ---------------------------------------------------------|
G ---------------------------------------------------------|
D --0*----------8-8-5-7-5---8-8-5-7-5---8-8-5-7-5---10-----|
A --0*----------6-6-3-5-3---6-6-3-5-3---6-6-3-5-3---8--x8--|
D --0*---x32-----------------------------------------------|   x3


Part 2


E ---------------------------------------------------------|
B ---------------------------------------------------------|
G ---------------------------------------------------------|
D -7-7-5-7-7-5-7-7-5-10-8--3-3-3-3--5-5--2-2-2-2-----------|
A -5-5-3-5-5-3-5-5-3-8--6--1-1-1-1--3-3--0-0-0-0-----------|
D ---------------------------------------------------------| x 4


Play Part 1 three more times


http://blankstarehc.blogspot.com/
Tap to rate this tab
# A B C D E F G H I J K L M N O P Q R S T U V W X Y Z