Song name
# A B C D E F G H I J K L M N O P Q R S T U V W X Y Z

Blank Theory - Killing Me tab

Verse 1 (Acoustic Guitar)

E ------------------------------------------------------------|
B ------------------------------------------------------------|
G ------------------------------------------------------------|
D -----------------------------------------------2-2----------|
A -7---7-7-8-7---7---7-8-8---3---3-3-3-2---2-3-2-0-0----------|
E -5---5-5-5-5---5---5-5-5---1---1-1-1-1---1-1-1--------------| x8

Verse 2 (Acoustic Guitar)

E ------------------------------------------------------------|
B ------------------------------------------------------------|
G ------------------------------------------------------------|
D ------------------------------------------------------------|
A -5---5-5-5-5---5-5-5-5-5-5-1---1-1-1-1---1--1--1------------|
E -3---3-3-3-3---3-3-7-7-7-7-3---3-3-3-3---3--3--3------------| x2

CHORUS (Overdriven Guitar)

E -------------------------------------------------------------------|
B -------------------------------------------------------------------|
G -------------------------------------------------------------------|
D -------------------------------------------------------------------|
A -10--10101010--9---9-9-9---7-7-7---5---5-5-5---5-5---5-5---5-5-5-5-|
E -8---8-8-8-8---7---7-7-7---5-5-5---3---3-3-3---3-3---3-3---3-3-3-3-|

E -------------------------------------------------------------------|
B -------------------------------------------------------------------|
G -------------------------------------------------------------------|
D -------------------------------------------------------------------|
A -10--10101010--9---9-9-9---7-7-7---9--9--9---10--1010--10101010----|
E -8---8-8-8-8---7---7-7-7---5-5-5---7--7--7---8---8-8---8-8-8-8-----|

E -------------------------------------------------------------------|
B -------------------------------------------------------------------|
G -------------------------------------------------------------------|
D -------------------------------------------------------------------|
A -10--10101010--9---9-9-9---7-7-7---5---5-5-5---5-5---5-5---5-5-5-5-|
E -8---8-8-8-8---7---7-7-7---5-5-5---3---3-3-3---3-3---3-3---3-3-3-3-|

E -------------------------------------------------------------------|
B -------------------------------------------------------------------|
G -------------------------------------------------------------------|
D -------------------------------------------------------------------|
A -3---3-3-3---3-3-3-3-3---3-3-3-3-5---------------------------------|
E -1---1-1-1---1-1-1-1-1---1-1-1-1-3---------------------------------|

Verse 1 x8 (Acoustic Guitar)

Verse 2 x2 (Acoustic Guitar)

CHORUS 2 (Overdriven Guitar)

E -------------------------------------------------------------------|
B -------------------------------------------------------------------|
G -------------------------------------------------------------------|
D -------------------------------------------------------------------|
A -10--10101010--9---9-9-9---7-7-7---5---5-5-5---5-5---5-5---5-5-5-5-|
E -8---8-8-8-8---7---7-7-7---5-5-5---3---3-3-3---3-3---3-3---3-3-3-3-|

E -------------------------------------------------------------------|
B -------------------------------------------------------------------|
G -------------------------------------------------------------------|
D -------------------------------------------------------------------|
A -10--10101010--9---9-9-9---7-7-7---9--9--9---10--1010--10101010----|
E -8---8-8-8-8---7---7-7-7---5-5-5---7--7--7---8---8-8---8-8-8-8-----|

E -------------------------------------------------------------------|
B -------------------------------------------------------------------|
G -------------------------------------------------------------------|
D -------------------------------------------------------------------|
A -10--10101010--9---9-9-9---7-7-7---5---5-5-5---5-5---5-5---5-5-5-5-|
E -8---8-8-8-8---7---7-7-7---5-5-5---3---3-3-3---3-3---3-3---3-3-3-3-|

E -------------------------------------------------------------------|
B -------------------------------------------------------------------|
G -------------------------------------------------------------------|
D -------------------------------------------------------------------|
A -3---3-3-3---3-3-3-3-3---3-3-3-3-5---5-5-5---5-5-5-5-5---5-5-5-5---|
E -1---1-1-1---1-1-1-1-1---1-1-1-1-3---3-3-3---3-3-3-3-3---3-3-3-3---|

E -------------------------------------------------------------------|
B -------------------------------------------------------------------|
G -------------------------------------------------------------------|
D -------------------------------------------------------------------|
A -7---7-7-7---7-7-7-7-7---7-7-7-7---7---7-7-7---7-7-7-7-7---7-7-7-7-|
E -5---5-5-5---5-5-5-5-5---5-5-5-5---5---5-5-5---5-5-5-5-5---5-5-5-5-|

SOLO

E -------------------------------------------------------------------|
B -------------------------------------------------------------------|
G -7---7-7-7---9---9-9-9---10--101010--5--5--5-5---5-5---5---5-------|
D -------------------------------------------------------------------|
A -------------------------------------------------------------------|
E -------------------------------------------------------------------| x3

E -------------------------------------------------------------------|
B -10--10-10-10-11-10---10--10-10-11-10---10-------------------------|
G -------------------------------------------------------------------|
D -------------------------------------------------------------------|
A -------------------------------------------------------------------|
E -------------------------------------------------------------------|

Verse 1 x4

CHORUS 1

OUTRO

E -------------------------------------------------------------------|
B -------------------------------------------------------------------|
G -------------------------------------------------------------------|
D -------------------------------------------------------------------|
A -5---5-5-5---5-5-5-5-5---5-5-5-5---3---3-3-3---3-3-3-3-3---3-3-3-3-|
E -3---3-3-3---3-3-3-3-3---3-3-3-3---1---1-1-1---1-1-1-1-1---1-1-1-1-|


E -------------------------------------------------------------------|
B -------------------------------------------------------------------|
G -------------------------------------------------------------------|
D -------------------------------------------------------------------|
A -5---5-5-5---5-5-5-5-5---5-5-5-5---3---3-3-3---3-3-3-3-3---3-3-3-3-|
E -3---3-3-3---3-3-3-3-3---3-3-3-3---1---1-1-1---1-1-1-1-1---1-1-1-1-|

______________________________________________________________________

Pretty sure that's all of it
Enjoy ;D

bleeding_napalm@hotmail.com
Tap to rate this tab
# A B C D E F G H I J K L M N O P Q R S T U V W X Y Z