Song name
# A B C D E F G H I J K L M N O P Q R S T U V W X Y Z

Blank Theory - Corporation tab

he Blank Theory - Corporation ('Beyond the Calm of the Corridor' Version)

Transcribed and tabbed by: sychosisdragon@yahoo.com


This is my first tab, It's probably also the only Blank Theory tab for Corporation
on the net, so if any new ones show up, they probably are taking credit for mine.
I am 99.99% certain that this is correct, but there's always that pesky 00.01% of
possible error.


NOTES: The tremolo parts may not be the exact amount of times you play the notes
Also, there's only one part that I can tell has two guitars playing simultaneously,
the bridge near the end, it's signified by an asterisk.


Tuning: Drop D (D, A, D, G, B, e)


Legend:

/ = slide up

\ = slide down

~ = let ring

b = bend


Intro:
 -{||-----------------------------------------------------------------------||}-
|  ||-----------------------------------------------------------------------||  |
|  ||-----------------------------------------------------------------------||  |
|  ||-x-0-3-0--2-2----0-3-0--2-2-----------0-3-0--2-2----0-3-0--2-2---------||  |
|  ||-x-0-3-0--2-2----0-3-0--2-2---/7b8----0-3-0--2-2----0-3-0--2-2---/8b9--||  |
 -{||-x-0-3-0--2-2----0-3-0--2-2-----------0-3-0--2-2----0-3-0--2-2---------||}-

 -{||--------------------------------------------------------------------||}-
|  ||--------------------------------------------------------------------||  |
|  ||--------------------------------------------------------------------||  |
|  ||-0-3-0--2-2----0-3-0--2-2-----------0-3-0--2-2----0-3-0--2-2--2-3-5-||  |
|  ||-0-3-0--2-2----0-3-0--2-2---/7b8----0-3-0--2-2----0-3-0--2-2--2-3-5-||  |
 -{||-0-3-0--2-2----0-3-0--2-2-----------0-3-0--2-2----0-3-0--2-2--2-3-5-||}-

 -{||-----------------------------------------------------------------------||}-
|  ||-----------------------------------------------------------------------||  |
|  ||-----------------------------------------------------------------------||  |
|  ||--0-3-0--2-2----0-3-0--2-2-----------0-3-0--2-2----0-3-0--2-2----------||  |
|  ||--0-3-0--2-2----0-3-0--2-2---/7b8----0-3-0--2-2----0-3-0--2-2---/8b9---||  |
 -{||--0-3-0--2-2----0-3-0--2-2-----------0-3-0--2-2----0-3-0--2-2----------||}-

 -{||------------------------------------------------------------------------||}-
|  ||------------------------------------------------------------------------||  |
|  ||------------------------------------------------------------------------||  |
|  ||-0-3-0--2-2----0-3-0--2-2-----------0-3-0--2-2----0-3-0--2-2---3--5--0~-||  |
|  ||-0-3-0--2-2----0-3-0--2-2---/7b8----0-3-0--2-2----0-3-0--2-2---3--5--0~-||  |
 -{||-0-3-0--2-2----0-3-0--2-2-----------0-3-0--2-2----0-3-0--2-2---3--5--0~-||}-


Verse:
“...I'm held inside a tortured...”
 -{||-------------------------------------------------------------------------||}-
|  ||-------------------------------------------------------------------------||  |
|  ||-------------------------------------------------------------------------||  |
|  ||-------------------------------------------------------------------------||  |
|  ||---------------------5-6-6-6-5-5-5-5-5-5-5-5-5-5-6-6-6-6-3-3-3-3-3-3-3-3-||  |
 -{||-------------------------------------------------------------------------||}-

 -{||--------------------------------------------------------------------||}-
|  ||--------------------------------------------------------------------||  |
|  ||--------------------------------------------------------------------||  |
|  ||--------------------------------------------------------------------||  |
|  ||-6-6-6-6-8-8-8-8-5-5-5-5-5-5-5-5-5-5-6-6-6-6-3-3-3-3-3-3-3-3-5/6-6\-||  |
 -{||--------------------------------------------------------------------||}-


Prechorus:
 -{||-------------------------------------------------------||}-
|  ||-------------------------------------------------------||  |
|  ||-------------------------------------------------------||  |
|  ||-0-3-0--2-2----0-3-0--2-2-----------0-3-0--2-2---------||  |
|  ||-0-3-0--2-2----0-3-0--2-2---/7b8----0-3-0--2-2---/8b9--||  |
 -{||-0-3-0--2-2----0-3-0--2-2-----------0-3-0--2-2---------||}-

 -{||------------------------------------------------------------------||}-
|  ||------------------------------------------------------------------||  |
|  ||------------------------------------------------------------------||  |
|  ||-0-3-0--2-2----0-3-0--2-2-----------0-3-0--2-2----0-3-0--2-2--3-5-||  |
|  ||-0-3-0--2-2----0-3-0--2-2---/7b8----0-3-0--2-2----0-3-0--2-2--3-5-||  |
 -{||-0-3-0--2-2----0-3-0--2-2-----------0-3-0--2-2----0-3-0--2-2--3-5-||}-


Chorus:
        “They'll take it all...”
 -{||--------------------------------------||}-
|  ||--------------------------------------||  |
|  ||--------------------------------------||  |
|  ||-7----7--8---10--3---7----7--8------3-||  |
|  ||-7----8--10--8---3---7----7--8------3-||  |
 -{||-7----7--8---8---3---7----7--8------3-||}-

 -{||---------------------------------------------||}-
|  ||---------------------------------------------||  |
|  ||---------------------------------------------||  |
|  ||-7----7--8---10--3---7----0-0-3--1-----0~----||  |
|  ||-7----8--10--8---3---7----0-0-3--1-----0~----||  |
 -{||-7----7--8---8---3---7----0-0-3--1-----0~----||}-


Verse:

 -{||-------------------------------------------------------------------------||}-
|  ||-------------------------------------------------------------------------||  |
|  ||-------------------------------------------------------------------------||  |
|  ||-------------------------------------------------------------------------||  |
|  ||---------------------5-6-6-6-5-5-5-5-5-5-5-5-5-5-6-6-6-6-3-3-3-3-3-3-3-3-||  |
 -{||-------------------------------------------------------------------------||}-

 -{||--------------------------------------------------------------------||}-
|  ||--------------------------------------------------------------------||  |
|  ||--------------------------------------------------------------------||  |
|  ||--------------------------------------------------------------------||  |
|  ||-6-6-6-6-8-8-8-8-5-5-5-5-5-5-5-5-5-5-6-6-6-6-3-3-3-3-3-3-3-3-5/6-6\-||  |
 -{||--------------------------------------------------------------------||}-


Prechorus:
 -{||-------------------------------------------------------||}-
|  ||-------------------------------------------------------||  |
|  ||-------------------------------------------------------||  |
|  ||-0-3-0--2-2----0-3-0--2-2-----------0-3-0--2-2---------||  |
|  ||-0-3-0--2-2----0-3-0--2-2---/7b8----0-3-0--2-2---/8b9--||  |
 -{||-0-3-0--2-2----0-3-0--2-2-----------0-3-0--2-2---------||}-

 -{||------------------------------------------------------------------||}-
|  ||------------------------------------------------------------------||  |
|  ||------------------------------------------------------------------||  |
|  ||-0-3-0--2-2----0-3-0--2-2-----------0-3-0--2-2----0-3-0--2-2--3-5-||  |
|  ||-0-3-0--2-2----0-3-0--2-2---/7b8----0-3-0--2-2----0-3-0--2-2--3-5-||  |
 -{||-0-3-0--2-2----0-3-0--2-2-----------0-3-0--2-2----0-3-0--2-2--3-5-||}-


Chorus:
         “They'll take it all...”
 -{||--------------------------------------||}-
|  ||--------------------------------------||  |
|  ||--------------------------------------||  |
|  ||-7----7--8---10--3---7----7--8------3-||  |
|  ||-7----8--10--8---3---7----7--8------3-||  |
 -{||-7----7--8---8---3---7----7--8------3-||}-

 -{||---------------------------------------------||}-
|  ||---------------------------------------------||  |
|  ||---------------------------------------------||  |
|  ||-7----7--8---10--3---7----0-0-3--1-----0~----||  |
|  ||-7----8--10--8---3---7----0-0-3--1-----0~----||  |
 -{||-7----7--8---8---3---7----0-0-3--1-----0~----||}-


Bridge:
“...disappeared!...”
 -{||-----------------------------------------------------------------------||}-
|  ||-----------------------------------------------------------------------||  |
|  ||-----------------------------------------------------------------------||  |
|  ||-x-0-3-0--2-2----0-3-0--2-2----0-3-0--2-2----0-3-0--2-2---2-3-0--2-3-5-||  |
|  ||-x-0-3-0--2-2----0-3-0--2-2----0-3-0--2-2----0-3-0--2-2---2-3-0--2-3-5-||  |
 -{||-x-0-3-0--2-2----0-3-0--2-2----0-3-0--2-2----0-3-0--2-2---2-3-0--2-3-5-||}-

 -{||---------------------------------------------------------------------||}-
|  ||---------------------------------------------------------------------||  |
|  ||---------------------------------------------------------------------||  |
|  ||-0-3-0--2-2----0-3-0--2-2----0-3-0--2-2----0-3-0--2-2---2-3-0--2-3-5-||  |
|  ||-0-3-0--2-2----0-3-0--2-2----0-3-0--2-2----0-3-0--2-2---2-3-0--2-3-5-||  |
 -{||-0-3-0--2-2----0-3-0--2-2----0-3-0--2-2----0-3-0--2-2---2-3-0--2-3-5-||}-

                                     *

 -{||---------------------------------------------------------------------||}-
|  ||---------------------------------------------------------------------||  |
|  ||---------------------------------------------------------------------||  |  X2
|  ||-0-3-0--2-2----0-3-0--2-2----0-3-0--2-2----0-3-0--2-2---2-3-0--2-3-5-||  |
|  ||-0-3-0--2-2----0-3-0--2-2----0-3-0--2-2----0-3-0--2-2---2-3-0--2-3-5-||  |
 -{||-0-3-0--2-2----0-3-0--2-2----0-3-0--2-2----0-3-0--2-2---2-3-0--2-3-5-||}-


At the *, Guitar II comes in with Guitar I with:
 -{||---------------------------------------------------------------------||}-
|  ||-5-5-5-5-5-5-5-5-5-5-5-5-5-5-5-5-6-6-6-6-6-6-6-6-8-8-8-8-10-10-10-10-||  |
|  ||---------------------------------------------------------------------||  |  X2
|  ||---------------------------------------------------------------------||  |
|  ||---------------------------------------------------------------------||  |
 -{||---------------------------------------------------------------------||}-

Chorus:
        “They'll take it all...”
 -{||--------------------------------------||}-
|  ||--------------------------------------||  |
|  ||--------------------------------------||  |
|  ||-7----7--8---10--3---7----7--8------3-||  |
|  ||-7----8--10--8---3---7----7--8------3-||  |
 -{||-7----7--8---8---3---7----7--8------3-||}-

 -{||-----------------------------------||}-
|  ||-----------------------------------||  |
|  ||-----------------------------------||  |
|  ||-7----7--8---10--3---7----0-0-3--1-||  |
|  ||-7----8--10--8---3---7----0-0-3--1-||  |
 -{||-7----7--8---8---3---7----0-0-3--1-||}-

 -{||--------------------------------------||}-
|  ||--------------------------------------||  |
|  ||--------------------------------------||  |
|  ||-7----7--8---10--3---7----7--8------3-||  |
|  ||-7----8--10--8---3---7----7--8------3-||  |
 -{||-7----7--8---8---3---7----7--8------3-||}-

 -{||---------------------------------------------||}-
|  ||---------------------------------------------||  |
|  ||---------------------------------------------||  |
|  ||-7----7--8---10--3---7----0-0-3--1-----0~----||  |
|  ||-7----8--10--8---3---7----0-0-3--1-----0~----||  |
 -{||-7----7--8---8---3---7----0-0-3--1-----0~----||}-


And there you have it, if something in the tab is wrong and you'd like to correct it, 
please Email me at sychosisdragon@yahoo.com and let me know, I'll correct it and give you credit. 
Tap to rate this tab
# A B C D E F G H I J K L M N O P Q R S T U V W X Y Z