Song name
# A B C D E F G H I J K L M N O P Q R S T U V W X Y Z

Blankass - Tous Contre Un chords

Highlighted       Show chord diagrams
-------------------------------------------------------------------------------
                             Blankass - Tous Contre Un  
-------------------------------------------------------------------------------

Album: L'ére De Rien (1998)
Tempo : 105
Tabbed by:newg
E-mail:gwendal.mollo@orange.fr

Intro :
     D                   Am          F               G
e |--2-------2------------0-0---x-|--1------1--------3-----3-----3-----3--|
B |--3-------3------------1-1---x-|--1------1-----x--0-----0-----0-----0--|
G |--2-------2------------2-2---x-|--2------2-----x--0-----0-----0-----0--|
D |--0-------0------------2-2-----|--3------3-----x--0-----0-----0-----0--|
A |----------------3--2-----0-----|------------------2-----2-----2-----2--|
E |-------------------------------|------------------3-----3-----3-----3--|

X4


G           B5 
 Demain, je fermerai mes mains
C                 D
J'irai tout droit me moquer du matin.
G        B5 
 Demain j'effacerai les chemins,
C       D
 J'irai tracer le mien.

G           B5 
Demain, je couperais mes liens
C                 D
J'irai plus loin, oublier les voisins
G       B5 
Demain, rien ne me retient
C              D
  Demain c'est tous contre un

G C B5        D                G C B5 D 
     Comme un feu qui me tient…

(G B5 C D)
Fermer la gueule des regrets
Et puis jeter la clé.
Quitter la vie numérotée,
Sans compter, laisser le temps couler.

Rêver quand on était gamin,
Caché comme un indien.
Trouver la carte des recoins
Et s'évanouir enfin.


Refrain :
G C B5        D               
     Comme un feu qui me tient…
G C B5        D               
     Comme un camion sans freins
B5                       C      
   Et rien ne me retient
         D                  G C B5 D D
Comme un feu qui me tient…


Riff intro x2

(G B5 C D)
Demain, le jeu touche à sa fin,
Mal ou bien, j'inventerai le mien.
Passées les années sans été,
Demain, je veux brûler.

Cassées les mailles du filet,
Déchirés les fichiers, les papiers.
Demain, je quitte le chemin
Demain, c'est tous contre un.

Refrain
Solo
G C B5 D x2
Refrain
Tap to rate this tab
# A B C D E F G H I J K L M N O P Q R S T U V W X Y Z