Song name
# A B C D E F G H I J K L M N O P Q R S T U V W X Y Z

Blanks 77 - Up All Night tab

This song aint that hard...


e|-----------------------------------------------------------|
g|-----------------------------------------------------------|
b|77--77---------77--77---------77--77---------77--77--------|
d|77--77------9--77--77------9--77--77------9--77--77------9-|
a|55--55--(x8)9--55--55--(x8)9--55--55--(x8)9--55--55--(x8)9-|
e|------------7--------------7--------------7--------------7-|

e|--------------------------------------|
g|--------------------------------------|
b|-----7777---------------7777----------|
d|7777-7777-99999999-7777-7777-99999999-|
a|7777-5555-99999999-7777-5555-99999999-|
e|5555------77777777-5555------77777777-|

e|-----------------------------|
g|-----------------------------|
b|77--77---------77--77--------|
d|77--77------9--77--77------9-|
a|55--55--(x8)9--55--55--(x8)9-|
e|------------7--------------7-|

e|--------------------------------------|
g|--------------------------------------|
b|-----7777---------------7777----------|
d|7777-7777-99999999-7777-7777-99999999-|
a|7777-5555-99999999-7777-5555-99999999-|
e|5555------77777777-5555------77777777-|

e|-----------------------------------------------------------|
g|-----------------------------------------------------------|
b|77--77---------77--77---------77--77---------77--77--------|
d|77--77------9--77--77------9--77--77------9--77--77------9-|
a|55--55--(x8)9--55--55--(x8)9--55--55--(x8)9--55--55--(x8)9-|
e|------------7--------------7--------------7--------------7-|

e|----------------------------------------------------------------------------|
g|----------------------------------------------------------------------------|
b|-----7777---------------7777---------------7777---------------7777----------|
d|7777-7777-99999999-7777-7777-99999999-7777-7777-99999999-7777-7777-99999999-|
a|7777-5555-99999999-7777-5555-99999999-7777-5555-99999999-7777-5555-99999999-|
e|5555------77777777-5555------77777777-5555------77777777-5555------77777777-|

e|--------------------------------|
g|--------------------------------|
b|77--77---------77--77--------77-|
d|77--77------9--77--77------9-77-|
a|55--55--(x8)9--55--55--(x8)9-55-|
e|------------7--------------7----|

Sry I dont have the lyrics
Feel Free To Comment
Tap to rate this tab
# A B C D E F G H I J K L M N O P Q R S T U V W X Y Z