Song name
# A B C D E F G H I J K L M N O P Q R S T U V W X Y Z

Blanks 77 - Jehovahs Witness tab

Intro
e|--------------|
B|--------------|
G|-7~---5~------|
D|-7~---5~---5~-|
A|-5~---3~---5~-|
E|-----------3~-|

Use those Chords and find out the rythm. I shouldn't be hard.

Verse
e|-----------------------------------------|
B|-----------------------------------------|
G|------5555------7777------5555-77777777--|  x2
D|-5555-5555-5555-7777-5555-5555-77777777--|
A|-5555-3333-5555-5555-5555-3333-55555555--|
E|-3333------3333------3333----------------|

e|----------------------|
B|----------------------|
G|------5555-7777-9999--| x2
D|-7777-5555-7777-9999--|
A|-7777-3333-5555-7777--|
E|-5555-----------------|

e|------------------------------------|
B|------------------------------------|
G|-777777-9-7-555555-7-5-444444-5-4-2-| x1
D|------------------------------------|
A|-555555-7-5-333333-5-3-222222-3-2-0-|
E|------------------------------------|

And there you have all the riffs in Blanks 77's Jehovah's Witness!
The order is pretty easy to learn !
Good luck and keep it Punk!!
Tap to rate this tab
 
# A B C D E F G H I J K L M N O P Q R S T U V W X Y Z