Song name
# A B C D E F G H I J K L M N O P Q R S T U V W X Y Z

Blanks 77 - We Are The Punks tab

    Intro

E------|
B------|
G------|
D---5~-
A---5~-
E---3~-

    Riff/Chorus

E---------------    --------|
B---------------    --------|
G--------5------    -----7--|
D--5--8--5--5--- X3 -5-8-7--|
A--5--8--3--5---    -5-8-5--|
E--3--6-----3---    -3-6----|

    Verse

E------------------    --------------------|
B------------------    --------------------|
G-------------555--    --------------------|
D--5----------555-- X3 -5-----------55555--|
A--5-55555555-333--    -5-55555555--55555--|
E--3-33333333------    -3-33333333--33333--|
     ........             ........

End on

E------|
B------|
G------|
D---5~-
A---5~-
E---3~-

I wont bother with the strumming or the order, anyone can figure that out. Everything 
need to play the song in it's entirety is here.

. Palm Mute
~ Let Ring
Tap to rate this tab
# A B C D E F G H I J K L M N O P Q R S T U V W X Y Z